  0
SECTION
  2
HEADER
  9
$ACADVER
  1
AC1015
  9
$ACADMAINTVER
 70
     6
  9
$DWGCODEPAGE
  3
ANSI_1252
  9
$INSBASE
 10
0.0
 20
0.0
 30
0.0
  9
$EXTMIN
 10
0.0
 20
0.0
 30
0.0
  9
$EXTMAX
 10
420.0
 20
297.0
 30
0.0
  9
$LIMMIN
 10
0.0
 20
0.0
  9
$LIMMAX
 10
420.0
 20
297.0
  9
$ORTHOMODE
 70
     0
  9
$REGENMODE
 70
     1
  9
$FILLMODE
 70
     1
  9
$QTEXTMODE
 70
     0
  9
$MIRRTEXT
 70
     1
  9
$LTSCALE
 40
1.0
  9
$ATTMODE
 70
     1
  9
$TEXTSIZE
 40
3.5
  9
$TRACEWID
 40
1.0
  9
$TEXTSTYLE
  7
Standard
  9
$CLAYER
  8
0
  9
$CELTYPE
  6
ByLayer
  9
$CECOLOR
 62
   256
  9
$CELTSCALE
 40
1.0
  9
$DISPSILH
 70
     0
  9
$DIMSCALE
 40
1.0
  9
$DIMASZ
 40
3.0
  9
$DIMEXO
 40
1.0
  9
$DIMDLI
 40
3.75
  9
$DIMRND
 40
0.0
  9
$DIMDLE
 40
0.0
  9
$DIMEXE
 40
1.0
  9
$DIMTP
 40
0.0
  9
$DIMTM
 40
0.0
  9
$DIMTXT
 40
3.5
  9
$DIMCEN
 40
2.5
  9
$DIMTSZ
 40
0.0
  9
$DIMTOL
 70
     0
  9
$DIMLIM
 70
     0
  9
$DIMTIH
 70
     1
  9
$DIMTOH
 70
     1
  9
$DIMSE1
 70
     0
  9
$DIMSE2
 70
     0
  9
$DIMTAD
 70
     1
  9
$DIMZIN
 70
     0
  9
$DIMBLK
  1

  9
$DIMASO
 70
     1
  9
$DIMSHO
 70
     1
  9
$DIMPOST
  1

  9
$DIMAPOST
  1

  9
$DIMALT
 70
     0
  9
$DIMALTD
 70
     3
  9
$DIMALTF
 40
0.0393700787
  9
$DIMLFAC
 40
20.0
  9
$DIMTOFL
 70
     1
  9
$DIMTVP
 40
0.0
  9
$DIMTIX
 70
     0
  9
$DIMSOXD
 70
     0
  9
$DIMSAH
 70
     0
  9
$DIMBLK1
  1

  9
$DIMBLK2
  1

  9
$DIMSTYLE
  2
ISO-25
  9
$DIMCLRD
 70
     0
  9
$DIMCLRE
 70
     0
  9
$DIMCLRT
 70
     0
  9
$DIMTFAC
 40
1.0
  9
$DIMGAP
 40
1.524
  9
$DIMJUST
 70
     0
  9
$DIMSD1
 70
     0
  9
$DIMSD2
 70
     0
  9
$DIMTOLJ
 70
     0
  9
$DIMTZIN
 70
     0
  9
$DIMALTZ
 70
     0
  9
$DIMALTTZ
 70
     0
  9
$DIMUPT
 70
     0
  9
$DIMDEC
 70
     1
  9
$DIMTDEC
 70
     1
  9
$DIMALTU
 70
     2
  9
$DIMALTTD
 70
     3
  9
$DIMTXSTY
  7
Standard
  9
$DIMAUNIT
 70
     0
  9
$DIMADEC
 70
     1
  9
$DIMALTRND
 40
0.0
  9
$DIMAZIN
 70
     0
  9
$DIMDSEP
 70
    44
  9
$DIMATFIT
 70
     3
  9
$DIMFRAC
 70
     0
  9
$DIMLDRBLK
  1

  9
$DIMLUNIT
 70
     2
  9
$DIMLWD
 70
    -2
  9
$DIMLWE
 70
    -2
  9
$DIMTMOVE
 70
     0
  9
$LUNITS
 70
     2
  9
$LUPREC
 70
     1
  9
$SKETCHINC
 40
1.0
  9
$FILLETRAD
 40
10.0
  9
$AUNITS
 70
     0
  9
$AUPREC
 70
     1
  9
$MENU
  1
.
  9
$ELEVATION
 40
0.0
  9
$PELEVATION
 40
0.0
  9
$THICKNESS
 40
0.0
  9
$LIMCHECK
 70
     0
  9
$CHAMFERA
 40
0.0
  9
$CHAMFERB
 40
0.0
  9
$CHAMFERC
 40
0.0
  9
$CHAMFERD
 40
0.0
  9
$SKPOLY
 70
     0
  9
$TDCREATE
 40
2459516.359956956
  9
$TDUCREATE
 40
2459516.276623623
  9
$TDUPDATE
 40
2459516.359957303
  9
$TDUUPDATE
 40
2459516.27662397
  9
$TDINDWG
 40
0.0000000116
  9
$TDUSRTIMER
 40
0.0000000116
  9
$USRTIMER
 70
     1
  9
$ANGBASE
 50
0.0
  9
$ANGDIR
 70
     0
  9
$PDMODE
 70
     0
  9
$PDSIZE
 40
-1.0
  9
$PLINEWID
 40
0.0
  9
$SPLFRAME
 70
     0
  9
$SPLINETYPE
 70
     6
  9
$SPLINESEGS
 70
     8
  9
$HANDSEED
  5
359
  9
$SURFTAB1
 70
     6
  9
$SURFTAB2
 70
     6
  9
$SURFTYPE
 70
     6
  9
$SURFU
 70
     6
  9
$SURFV
 70
     6
  9
$UCSBASE
  2

  9
$UCSNAME
  2

  9
$UCSORG
 10
0.0
 20
0.0
 30
0.0
  9
$UCSXDIR
 10
1.0
 20
0.0
 30
0.0
  9
$UCSYDIR
 10
0.0
 20
1.0
 30
0.0
  9
$UCSORTHOREF
  2

  9
$UCSORTHOVIEW
 70
     0
  9
$UCSORGTOP
 10
0.0
 20
0.0
 30
0.0
  9
$UCSORGBOTTOM
 10
0.0
 20
0.0
 30
0.0
  9
$UCSORGLEFT
 10
0.0
 20
0.0
 30
0.0
  9
$UCSORGRIGHT
 10
0.0
 20
0.0
 30
0.0
  9
$UCSORGFRONT
 10
0.0
 20
0.0
 30
0.0
  9
$UCSORGBACK
 10
0.0
 20
0.0
 30
0.0
  9
$PUCSBASE
  2

  9
$PUCSNAME
  2

  9
$PUCSORG
 10
0.0
 20
0.0
 30
0.0
  9
$PUCSXDIR
 10
1.0
 20
0.0
 30
0.0
  9
$PUCSYDIR
 10
0.0
 20
1.0
 30
0.0
  9
$PUCSORTHOREF
  2

  9
$PUCSORTHOVIEW
 70
     0
  9
$PUCSORGTOP
 10
0.0
 20
0.0
 30
0.0
  9
$PUCSORGBOTTOM
 10
0.0
 20
0.0
 30
0.0
  9
$PUCSORGLEFT
 10
0.0
 20
0.0
 30
0.0
  9
$PUCSORGRIGHT
 10
0.0
 20
0.0
 30
0.0
  9
$PUCSORGFRONT
 10
0.0
 20
0.0
 30
0.0
  9
$PUCSORGBACK
 10
0.0
 20
0.0
 30
0.0
  9
$USERI1
 70
     0
  9
$USERI2
 70
     0
  9
$USERI3
 70
     0
  9
$USERI4
 70
     0
  9
$USERI5
 70
     0
  9
$USERR1
 40
0.0
  9
$USERR2
 40
0.0
  9
$USERR3
 40
0.0
  9
$USERR4
 40
0.0
  9
$USERR5
 40
0.0
  9
$WORLDVIEW
 70
     1
  9
$SHADEDGE
 70
     3
  9
$SHADEDIF
 70
    70
  9
$TILEMODE
 70
     1
  9
$MAXACTVP
 70
    64
  9
$PINSBASE
 10
0.0
 20
0.0
 30
0.0
  9
$PLIMCHECK
 70
     0
  9
$PEXTMIN
 10
1.0000000000E+20
 20
1.0000000000E+20
 30
1.0000000000E+20
  9
$PEXTMAX
 10
-1.0000000000E+20
 20
-1.0000000000E+20
 30
-1.0000000000E+20
  9
$PLIMMIN
 10
0.0
 20
0.0
  9
$PLIMMAX
 10
420.0
 20
297.0
  9
$UNITMODE
 70
     0
  9
$VISRETAIN
 70
     1
  9
$PLINEGEN
 70
     0
  9
$PSLTSCALE
 70
     1
  9
$TREEDEPTH
 70
  3020
  9
$CMLSTYLE
  2
Standard
  9
$CMLJUST
 70
     0
  9
$CMLSCALE
 40
20.0
  9
$PROXYGRAPHICS
 70
     1
  9
$MEASUREMENT
 70
     1
  9
$CELWEIGHT
370
    -1
  9
$ENDCAPS
280
     0
  9
$JOINSTYLE
280
     0
  9
$LWDISPLAY
290
     1
  9
$INSUNITS
 70
     4
  9
$HYPERLINKBASE
  1

  9
$STYLESHEET
  1

  9
$XEDIT
290
     1
  9
$CEPSNTYPE
380
     0
  9
$PSTYLEMODE
290
     1
  9
$FINGERPRINTGUID
  2
{0377C8FE-4F6A-4B20-9F1E-61F50790121C}
  9
$VERSIONGUID
  2
{FAEB1C32-E019-11D5-929B-00C0DF256EC4}
  9
$EXTNAMES
290
     1
  9
$PSVPSCALE
 40
0.0
  9
$OLESTARTUP
290
     0
  0
ENDSEC
  0
SECTION
  2
CLASSES
  0
CLASS
  1
ACDBDICTIONARYWDFLT
  2
AcDbDictionaryWithDefault
  3
ObjectDBX Classes
 90
        0
280
     0
281
     0
  0
CLASS
  1
VISUALSTYLE
  2
AcDbVisualStyle
  3
ObjectDBX Classes
 90
     4095
280
     0
281
     0
  0
CLASS
  1
MATERIAL
  2
AcDbMaterial
  3
ObjectDBX Classes
 90
     1153
280
     0
281
     0
  0
CLASS
  1
SCALE
  2
AcDbScale
  3
ObjectDBX Classes
 90
     1153
280
     0
281
     0
  0
CLASS
  1
TABLESTYLE
  2
AcDbTableStyle
  3
ObjectDBX Classes
 90
     4095
280
     0
281
     0
  0
CLASS
  1
MLEADERSTYLE
  2
AcDbMLeaderStyle
  3
ACDB_MLEADERSTYLE_CLASS
 90
     4095
280
     0
281
     0
  0
CLASS
  1
SUN
  2
AcDbSun
  3
SCENEOE
 90
     1153
280
     0
281
     0
  0
CLASS
  1
ACDBPLACEHOLDER
  2
AcDbPlaceHolder
  3
ObjectDBX Classes
 90
        0
280
     0
281
     0
  0
CLASS
  1
LAYOUT
  2
AcDbLayout
  3
ObjectDBX Classes
 90
        0
280
     0
281
     0
  0
ENDSEC
  0
SECTION
  2
TABLES
  0
TABLE
  2
VPORT
  5
8
330
0
100
AcDbSymbolTable
 70
     1
  0
VPORT
  5
29
330
8
100
AcDbSymbolTableRecord
100
AcDbViewportTableRecord
  2
*Active
 70
     0
 10
0.0
 20
0.0
 11
1.0
 21
1.0
 12
210.0
 22
148.5
 13
0.0
 23
0.0
 14
10.0
 24
10.0
 15
10.0
 25
10.0
 16
0.0
 26
0.0
 36
1.0
 17
0.0
 27
0.0
 37
0.0
 40
297.0
 41
1.4141414141
 42
50.0
 43
0.0
 44
0.0
 50
0.0
 51
0.0
 71
     0
 72
  2000
 73
     1
 74
     3
 75
     0
 76
     0
 77
     0
 78
     0
281
     0
 65
     1
110
0.0
120
0.0
130
0.0
111
1.0
121
0.0
131
0.0
112
0.0
122
1.0
132
0.0
 79
     0
146
0.0
  0
ENDTAB
  0
TABLE
  2
LTYPE
  5
5
330
0
100
AcDbSymbolTable
 70
     6
  0
LTYPE
  5
14
330
5
100
AcDbSymbolTableRecord
100
AcDbLinetypeTableRecord
  2
ByBlock
 70
     0
  3

 72
    65
 73
     0
 40
0.0
  0
LTYPE
  5
15
330
5
100
AcDbSymbolTableRecord
100
AcDbLinetypeTableRecord
  2
ByLayer
 70
     0
  3

 72
    65
 73
     0
 40
0.0
  0
LTYPE
  5
16
330
5
100
AcDbSymbolTableRecord
100
AcDbLinetypeTableRecord
  2
Continuous
 70
     0
  3
Solid line
 72
    65
 73
     0
 40
0.0
  0
LTYPE
  5
6E
330
5
100
AcDbSymbolTableRecord
100
AcDbLinetypeTableRecord
  2
HIDDEN
 70
     0
  3
Hidden __ __ __ __ __ __ __ __ __ __ __ __ __ __
 72
    65
 73
     2
 40
1.905
 49
1.27
 74
     0
 49
-0.635
 74
     0
  0
LTYPE
  5
6F
330
5
100
AcDbSymbolTableRecord
100
AcDbLinetypeTableRecord
  2
PHANTOM
 70
     0
  3
Phantom ______  __  __  ______  __  __  ______
 72
    65
 73
     6
 40
12.7
 49
6.35
 74
     0
 49
-1.27
 74
     0
 49
1.27
 74
     0
 49
-1.27
 74
     0
 49
1.27
 74
     0
 49
-1.27
 74
     0
  0
LTYPE
  5
70
330
5
100
AcDbSymbolTableRecord
100
AcDbLinetypeTableRecord
  2
CENTER
 70
     0
  3
Center ____ _ ____ _ ____ _ ____ _ ____ _ ____
 72
    65
 73
     4
 40
10.16
 49
6.35
 74
     0
 49
-1.27
 74
     0
 49
1.27
 74
     0
 49
-1.27
 74
     0
  0
LTYPE
  5
71
330
5
100
AcDbSymbolTableRecord
100
AcDbLinetypeTableRecord
  2
CENTERX2
 70
     0
  3
Center (2x) ________  __  ________  __  _____
 72
    65
 73
     4
 40
20.32
 49
12.7
 74
     0
 49
-2.54
 74
     0
 49
2.54
 74
     0
 49
-2.54
 74
     0
  0
LTYPE
  5
72
330
5
100
AcDbSymbolTableRecord
100
AcDbLinetypeTableRecord
  2
DOT2
 70
     0
  3
Dot (.5x) ........................................
 72
    65
 73
     2
 40
0.635
 49
0.0
 74
     0
 49
-0.635
 74
     0
  0
ENDTAB
  0
TABLE
  2
LAYER
  5
2
330
0
100
AcDbSymbolTable
 70
     6
  0
LAYER
  5
10
330
2
100
AcDbSymbolTableRecord
100
AcDbLayerTableRecord
  2
0
 70
     0
 62
     7
  6
Continuous
370
    -3
390
F
  0
LAYER
  5
73
330
2
100
AcDbSymbolTableRecord
100
AcDbLayerTableRecord
  2
SLD-0
 70
     0
 62
   179
  6
Continuous
370
    -3
390
F
  0
LAYER
  5
74
330
2
100
AcDbSymbolTableRecord
100
AcDbLayerTableRecord
  2
50DISEGNO
 70
     0
 62
     1
  6
Continuous
370
    -3
390
F
  0
LAYER
  5
75
330
2
100
AcDbSymbolTableRecord
100
AcDbLayerTableRecord
  2
SLD-DEFPOINTS
 70
     0
 62
    35
  6
Continuous
370
    -3
390
F
  0
LAYER
  5
76
330
2
100
AcDbSymbolTableRecord
100
AcDbLayerTableRecord
  2
250_CARTIGLIO
 70
     0
 62
   230
  6
Continuous
370
    -3
390
F
  0
LAYER
  5
77
330
2
100
AcDbSymbolTableRecord
100
AcDbLayerTableRecord
  2
80_QUOTE
 70
     0
 62
   179
  6
Continuous
370
    -3
390
F
  0
ENDTAB
  0
TABLE
  2
STYLE
  5
3
330
0
100
AcDbSymbolTable
 70
     1
  0
STYLE
  5
11
330
3
100
AcDbSymbolTableRecord
100
AcDbTextStyleTableRecord
  2
Standard
 70
     0
 40
0.0
 41
1.0
 50
0.0
 71
     0
 42
3.5
  3
txt
  4

  0
ENDTAB
  0
TABLE
  2
VIEW
  5
6
330
0
100
AcDbSymbolTable
 70
     0
  0
ENDTAB
  0
TABLE
  2
UCS
  5
7
330
0
100
AcDbSymbolTable
 70
     0
  0
ENDTAB
  0
TABLE
  2
APPID
  5
9
330
0
100
AcDbSymbolTable
 70
     1
  0
APPID
  5
12
330
9
100
AcDbSymbolTableRecord
100
AcDbRegAppTableRecord
  2
ACAD
 70
     0
  0
ENDTAB
  0
TABLE
  2
DIMSTYLE
  5
A
330
0
100
AcDbSymbolTable
 70
     1
100
AcDbDimStyleTable
  0
DIMSTYLE
105
27
330
A
100
AcDbSymbolTableRecord
100
AcDbDimStyleTableRecord
  2
ISO-25
 70
     0
 41
2.5
 42
0.625
 43
3.75
 44
1.25
 73
     0
 74
     0
 77
     1
 78
     8
140
2.5
141
2.5
143
0.0393700787
147
0.625
171
     3
172
     1
178
     0
271
     2
272
     2
274
     3
278
    44
283
     0
284
     8
340
11
  0
ENDTAB
  0
TABLE
  2
BLOCK_RECORD
  5
1
330
0
100
AcDbSymbolTable
 70
     1
  0
BLOCK_RECORD
  5
1F
330
1
100
AcDbSymbolTableRecord
100
AcDbBlockTableRecord
  2
*Model_Space
340
22
  0
BLOCK_RECORD
  5
1B
330
1
100
AcDbSymbolTableRecord
100
AcDbBlockTableRecord
  2
*Paper_Space
340
1E
  0
BLOCK_RECORD
  5
23
330
1
100
AcDbSymbolTableRecord
100
AcDbBlockTableRecord
  2
*Paper_Space0
340
26
  0
ENDTAB
  0
ENDSEC
  0
SECTION
  2
BLOCKS
  0
BLOCK
  5
20
330
1F
100
AcDbEntity
  8
0
100
AcDbBlockBegin
  2
*Model_Space
 70
     0
 10
0.0
 20
0.0
 30
0.0
  3
*Model_Space
  1

  0
ENDBLK
  5
21
330
1F
100
AcDbEntity
  8
0
100
AcDbBlockEnd
  0
BLOCK
  5
1C
330
1B
100
AcDbEntity
 67
     1
  8
0
100
AcDbBlockBegin
  2
*Paper_Space
 70
     0
 10
0.0
 20
0.0
 30
0.0
  3
*Paper_Space
  1

  0
ENDBLK
  5
1D
330
1B
100
AcDbEntity
 67
     1
  8
0
100
AcDbBlockEnd
  0
BLOCK
  5
24
330
23
100
AcDbEntity
  8
0
100
AcDbBlockBegin
  2
*Paper_Space0
 70
     0
 10
0.0
 20
0.0
 30
0.0
  3
*Paper_Space0
  1

  0
ENDBLK
  5
25
330
23
100
AcDbEntity
  8
0
100
AcDbBlockEnd
  0
ENDSEC
  0
SECTION
  2
ENTITIES
  0
LINE
  5
78
330
1F
100
AcDbEntity
  8
0
  6
Continuous
 62
     7
370
    25
100
AcDbLine
 10
365.5979890068
 20
144.9734247725
 30
0.0
 11
365.5979890068
 21
104.3096926716
 31
0.0
  0
LINE
  5
79
330
1F
100
AcDbEntity
  8
0
  6
Continuous
 62
     7
370
    25
100
AcDbLine
 10
367.0979890233
 20
143.2020889024
 30
0.0
 11
367.0979890233
 21
144.9734247725
 31
0.0
  0
LINE
  5
7A
330
1F
100
AcDbEntity
  8
0
  6
Continuous
 62
     7
370
    25
100
AcDbLine
 10
367.0979890233
 20
106.6182396043
 30
0.0
 11
367.0979890233
 21
142.6648784482
 31
0.0
  0
LINE
  5
7B
330
1F
100
AcDbEntity
  8
0
  6
Continuous
 62
     7
370
    25
100
AcDbLine
 10
367.0979890233
 20
104.3096926716
 30
0.0
 11
367.0979890233
 21
106.0810279334
 31
0.0
  0
LINE
  5
7C
330
1F
100
AcDbEntity
  8
0
  6
Continuous
 62
     7
370
    25
100
AcDbLine
 10
367.5911492977
 20
144.3714008989
 30
0.0
 11
367.0979890233
 21
144.0867055324
 31
0.0
  0
LINE
  5
7D
330
1F
100
AcDbEntity
  8
0
  6
Continuous
 62
     7
370
    25
100
AcDbLine
 10
367.0979890233
 20
142.643369341
 30
0.0
 11
368.2160985527
 21
143.2888402331
 31
0.0
  0
LINE
  5
7E
330
1F
100
AcDbEntity
  8
0
  6
Continuous
 62
     7
370
    25
100
AcDbLine
 10
367.5911492977
 20
107.7903732224
 30
0.0
 11
367.0979890233
 21
107.5056778559
 31
0.0
  0
LINE
  5
7F
330
1F
100
AcDbEntity
  8
0
  6
Continuous
 62
     7
370
    25
100
AcDbLine
 10
367.0979890233
 20
106.0623410561
 30
0.0
 11
368.2160985527
 21
106.7078119482
 31
0.0
  0
LINE
  5
80
330
1F
100
AcDbEntity
  8
0
  6
Continuous
 62
     7
370
    25
100
AcDbLine
 10
341.3359291222
 20
113.1641767491
 30
0.0
 11
339.7998682621
 21
114.0509258086
 31
0.0
  0
LINE
  5
81
330
1F
100
AcDbEntity
  8
0
  6
Continuous
 62
     7
370
    25
100
AcDbLine
 10
365.3419226676
 20
99.3058116589
 30
0.0
 11
341.7998173566
 21
112.8963797716
 31
0.0
  0
LINE
  5
82
330
1F
100
AcDbEntity
  8
0
  6
Continuous
 62
     7
370
    25
100
AcDbLine
 10
367.341676833
 20
98.1513781521
 30
0.0
 11
365.8057634869
 21
99.0380420536
 31
0.0
  0
LINE
  5
83
330
1F
100
AcDbEntity
  8
0
  6
Continuous
 62
     7
370
    25
100
AcDbLine
 10
339.0499293668
 20
112.7518524013
 30
0.0
 11
366.5917379377
 21
96.8523047447
 31
0.0
  0
LINE
  5
84
330
1F
100
AcDbEntity
  8
0
  6
Continuous
 62
     7
370
    25
100
AcDbLine
 10
366.4421008204
 20
99.9616807785
 30
0.0
 11
365.3239512514
 21
99.316186772
 31
0.0
  0
LINE
  5
85
330
1F
100
AcDbEntity
  8
0
  6
Continuous
 62
     7
370
    25
100
AcDbLine
 10
366.5740520664
 20
98.5945172032
 30
0.0
 11
367.0670500754
 21
98.8791188959
 31
0.0
  0
LINE
  5
86
330
1F
100
AcDbEntity
  8
0
  6
Continuous
 62
     7
370
    25
100
AcDbLine
 10
342.4358248911
 20
113.8202088854
 30
0.0
 11
341.3176753221
 21
113.174714879
 31
0.0
  0
LINE
  5
87
330
1F
100
AcDbEntity
  8
0
  6
Continuous
 62
     7
370
    25
100
AcDbLine
 10
342.567776137
 20
112.4530453102
 30
0.0
 11
343.0607741461
 21
112.7376470029
 31
0.0
  0
LINE
  5
88
330
1F
100
AcDbEntity
  8
0
  6
Continuous
 62
     7
370
    25
100
AcDbLine
 10
374.7122576413
 20
77.9205098973
 30
0.0
 11
374.5428552326
 21
78.0246562238
 31
0.0
  0
SPLINE
  5
89
330
1F
100
AcDbEntity
  8
0
  6
Continuous
 62
     7
370
    25
100
AcDbSpline
210
0.0
220
0.0
230
1.0
 70
     8
 71
     3
 72
    14
 73
    10
 74
     0
 42
0.000000001
 43
0.00000001
 40
0.0
 40
0.0
 40
0.0
 40
0.0
 40
0.1173698001112296
 40
0.2706438931306345
 40
0.4247620215896137
 40
0.5816299138948477
 40
0.7418716381723204
 40
0.9048644057547209
 40
1.0
 40
1.0
 40
1.0
 40
1.0
 10
374.9813168001851
 20
77.5085838593331
 30
0.0
 10
374.9813024000703
 20
77.52793360405116
 30
0.0
 10
374.9812691947385
 20
77.5725523239997
 30
0.0
 10
374.9626199174483
 20
77.64132542637628
 30
0.0
 10
374.9292742138758
 20
77.71309926618272
 30
0.0
 10
374.8809261967145
 20
77.78125514112641
 30
0.0
 10
374.8184337632462
 20
77.84492969392207
 30
0.0
 10
374.7537459251461
 20
77.89525453044676
 30
0.0
 10
374.7082745078899
 20
77.92273760238098
 30
0.0
 10
374.6915155966599
 20
77.93286674263364
 30
0.0
  0
LINE
  5
8A
330
1F
100
AcDbEntity
  8
0
  6
Continuous
 62
     7
370
    25
100
AcDbLine
 10
373.1011132243
 20
77.5185128983
 30
0.0
 11
373.1022243206
 21
77.4966636066
 31
0.0
  0
LINE
  5
8B
330
1F
100
AcDbEntity
  8
0
  6
Continuous
 62
     7
370
    25
100
AcDbLine
 10
374.9828103791
 20
77.4369276958
 30
0.0
 11
374.9828103791
 21
77.5142053264
 31
0.0
  0
LINE
  5
8C
330
1F
100
AcDbEntity
  8
0
  6
Continuous
 62
     7
370
    25
100
AcDbLine
 10
373.0998108867
 20
77.5142050223
 30
0.0
 11
373.0998108867
 21
77.4369273917
 31
0.0
  0
SPLINE
  5
8D
330
1F
100
AcDbEntity
  8
0
  6
Continuous
 62
     7
370
    25
100
AcDbSpline
210
0.0
220
0.0
230
1.0
 70
     8
 71
     3
 72
    32
 73
    28
 74
     0
 42
0.000000001
 43
0.00000001
 40
0.0
 40
0.0
 40
0.0
 40
0.0
 40
0.0204344703004392
 40
0.0601295327556056
 40
0.1000763108068567
 40
0.1407542232385051
 40
0.1823034917936827
 40
0.2245506981843301
 40
0.2671876383334542
 40
0.3099454264877562
 40
0.3526587071622198
 40
0.3952918339720336
 40
0.437852278306972
 40
0.4803629790452771
 40
0.5228570058689888
 40
0.5653672732395222
 40
0.6079194873100747
 40
0.6505507791171863
 40
0.6932964229689407
 40
0.7361851269873321
 40
0.7792238252798374
 40
0.8223664190031057
 40
0.865394684817197
 40
0.9079737299244718
 40
0.9497163626260291
 40
0.9904464743497786
 40
1.0
 40
1.0
 40
1.0
 40
1.0
 10
373.1022243206004
 20
77.419383542461
 30
0.0
 10
373.1024878083658
 20
77.40638508862254
 30
0.0
 10
373.1032631353493
 20
77.36813643600954
 30
0.0
 10
373.1216709267428
 20
77.30576221609397
 30
0.0
 10
373.1555855496155
 20
77.23415518216656
 30
0.0
 10
373.2048225342529
 20
77.16624092251121
 30
0.0
 10
373.26795090757
 20
77.10275508441077
 30
0.0
 10
373.3445176400153
 20
77.04473170261528
 30
0.0
 10
373.4331597970822
 20
76.99328453393545
 30
0.0
 10
373.5321829789698
 20
76.94939368807013
 30
0.0
 10
373.6396852995477
 20
76.91377506410102
 30
0.0
 10
373.7537459978374
 20
76.88694158634654
 30
0.0
 10
373.872451491804
 20
76.86922455405168
 30
0.0
 10
373.9938669105154
 20
76.86084555880477
 30
0.0
 10
374.1160324856547
 20
76.86190152092934
 30
0.0
 10
374.2369806509355
 20
76.87237955349916
 30
0.0
 10
374.3547681640782
 20
76.89214319615238
 30
0.0
 10
374.4675103135428
 20
76.92096289951981
 30
0.0
 10
374.5734045334791
 20
76.95850878668035
 30
0.0
 10
374.6707290823116
 20
77.00439446099186
 30
0.0
 10
374.7578198797875
 20
77.05813647010685
 30
0.0
 10
374.8330338571012
 20
77.11914599612113
 30
0.0
 10
374.8945658365242
 20
77.18656460342646
 30
0.0
 10
374.9413435626017
 20
77.25913417589308
 30
0.0
 10
374.970436651033
 20
77.3351149460807
 30
0.0
 10
374.9834814522383
 20
77.39330532214161
 30
0.0
 10
374.9816624057899
 20
77.42523905209559
 30
0.0
 10
374.9813168001851
 20
77.43130622869926
 30
0.0
  0
LINE
  5
8E
330
1F
100
AcDbEntity
  8
0
  6
Continuous
 62
     7
370
    25
100
AcDbLine
 10
374.457002629
 20
77.8137616974
 30
0.0
 11
374.457002629
 21
77.9452232216
 31
0.0
  0
LINE
  5
8F
330
1F
100
AcDbEntity
  8
0
  6
Continuous
 62
     7
370
    25
100
AcDbLine
 10
372.2536307165
 20
153.6264165435
 30
0.0
 11
372.2536307165
 21
80.1499906982
 31
0.0
  0
LINE
  5
90
330
1F
100
AcDbEntity
  8
0
  6
Continuous
 62
     7
370
    25
100
AcDbLine
 10
389.5403840115
 20
165.7114474937
 30
0.0
 11
386.9947994454
 21
164.2419128036
 31
0.0
  0
LWPOLYLINE
  5
91
330
1F
100
AcDbEntity
  8
0
  6
Continuous
 62
     7
370
    25
100
AcDbPolyline
 90
       11
 70
   128
 43
0.0
 10
386.9947994454
 20
164.2419128036
 10
386.951097905
 20
164.2086928889
 10
386.9116740063
 20
164.1627380133
 10
386.8803870836
 20
164.1085465611
 10
386.8602996322
 20
164.051424755
 10
386.853378066
 20
163.9969634857
 10
386.8602996322
 20
163.9504961201
 10
386.8803870836
 20
163.9165667917
 10
386.9116740063
 20
163.8984984516
 10
386.951097905
 20
163.8980614406
 10
386.9947994454
 20
163.9152958169
  0
LINE
  5
92
330
1F
100
AcDbEntity
  8
0
  6
Continuous
 62
     7
370
    25
100
AcDbLine
 10
386.9947994454
 20
163.9152958169
 30
0.0
 11
389.5403840115
 21
165.384830507
 31
0.0
  0
LWPOLYLINE
  5
93
330
1F
100
AcDbEntity
  8
0
  6
Continuous
 62
     7
370
    25
100
AcDbPolyline
 90
       11
 70
   128
 43
0.0
 10
389.5403840115
 20
165.384830507
 10
389.5840855519
 20
165.4180528552
 10
389.6235091872
 20
165.4640075787
 10
389.6547963733
 20
165.5181991829
 10
389.6748835613
 20
165.575320837
 10
389.6818051275
 20
165.6297796728
 10
389.6748835613
 20
165.6762494719
 10
389.6547963733
 20
165.7101789524
 10
389.6235091872
 20
165.7282471404
 10
389.5840855519
 20
165.7286843035
 10
389.5403840115
 20
165.7114474937
  0
LINE
  5
94
330
1F
100
AcDbEntity
  8
0
  6
Continuous
 62
     7
370
    25
100
AcDbLine
 10
389.5403840115
 20
169.2225740166
 30
0.0
 11
386.9947994454
 21
167.7530393265
 31
0.0
  0
LWPOLYLINE
  5
95
330
1F
100
AcDbEntity
  8
0
  6
Continuous
 62
     7
370
    25
100
AcDbPolyline
 90
       11
 70
   128
 43
0.0
 10
386.9947994454
 20
167.7530393265
 10
386.951097905
 20
167.7198194118
 10
386.9116740063
 20
167.6738645362
 10
386.8803870836
 20
167.6196706505
 10
386.8602996322
 20
167.5625488444
 10
386.853378066
 20
167.5080875751
 10
386.8602996322
 20
167.461622643
 10
386.8803870836
 20
167.4276933146
 10
386.9116740063
 20
167.409622541
 10
386.951097905
 20
167.40918553
 10
386.9947994454
 20
167.4264223398
  0
LINE
  5
96
330
1F
100
AcDbEntity
  8
0
  6
Continuous
 62
     7
370
    25
100
AcDbLine
 10
386.9947994454
 20
167.4264223398
 30
0.0
 11
389.5403840115
 21
168.8959570299
 31
0.0
  0
LWPOLYLINE
  5
97
330
1F
100
AcDbEntity
  8
0
  6
Continuous
 62
     7
370
    25
100
AcDbPolyline
 90
       11
 70
   128
 43
0.0
 10
389.5403840115
 20
168.8959570299
 10
389.5840855519
 20
168.9291769446
 10
389.6235091872
 20
168.9751316681
 10
389.6547963733
 20
169.0293257058
 10
389.6748835613
 20
169.0864473599
 10
389.6818051275
 20
169.1409037623
 10
389.6748835613
 20
169.1873735613
 10
389.6547963733
 20
169.2213030418
 10
389.6235091872
 20
169.2393736633
 10
389.5840855519
 20
169.2398108264
 10
389.5403840115
 20
169.2225740166
  0
LINE
  5
98
330
1F
100
AcDbEntity
  8
0
  6
Continuous
 62
     7
370
    25
100
AcDbLine
 10
385.5805859146
 20
163.0988877233
 30
0.0
 11
386.1109160216
 21
163.4050407774
 31
0.0
  0
LWPOLYLINE
  5
99
330
1F
100
AcDbEntity
  8
0
  6
Continuous
 62
     7
370
    25
100
AcDbPolyline
 90
       11
 70
   128
 43
0.0
 10
386.1109160216
 20
163.4050407774
 10
386.154617562
 20
163.4382631256
 10
386.1940414607
 20
163.4842180012
 10
386.22532812
 20
163.5384093013
 10
386.2454155714
 20
163.5955311074
 10
386.252337401
 20
163.6499900953
 10
386.2454155714
 20
163.6964597424
 10
386.22532812
 20
163.7303890707
 10
386.1940414607
 20
163.7484575629
 10
386.154617562
 20
163.7488945739
 10
386.1109160216
 20
163.7316577641
  0
LINE
  5
9A
330
1F
100
AcDbEntity
  8
0
  6
Continuous
 62
     7
370
    25
100
AcDbLine
 10
386.1109160216
 20
163.7316577641
 30
0.0
 11
385.5805859146
 21
163.42550471
 31
0.0
  0
LWPOLYLINE
  5
9B
330
1F
100
AcDbEntity
  8
0
  6
Continuous
 62
     7
370
    25
100
AcDbPolyline
 90
       11
 70
   128
 43
0.0
 10
385.5805859146
 20
163.42550471
 10
385.5368843743
 20
163.3922847953
 10
385.4974604756
 20
163.3463299197
 10
385.4661735528
 20
163.2921384676
 10
385.4460861014
 20
163.2350166614
 10
385.4391645352
 20
163.1805553921
 10
385.4460861014
 20
163.1340880265
 10
385.4661735528
 20
163.1001586981
 10
385.4974604756
 20
163.082090358
 10
385.5368843743
 20
163.081653347
 10
385.5805859146
 20
163.0988877233
  0
LINE
  5
9C
330
1F
100
AcDbEntity
  8
0
  6
Continuous
 62
     7
370
    25
100
AcDbLine
 10
385.5805859146
 20
166.6100142462
 30
0.0
 11
386.1109160216
 21
166.9161673003
 31
0.0
  0
LWPOLYLINE
  5
9D
330
1F
100
AcDbEntity
  8
0
  6
Continuous
 62
     7
370
    25
100
AcDbPolyline
 90
       11
 70
   128
 43
0.0
 10
386.1109160216
 20
166.9161673003
 10
386.154617562
 20
166.949387215
 10
386.1940414607
 20
166.9953420906
 10
386.22532812
 20
167.0495358242
 10
386.2454155714
 20
167.1066576303
 10
386.252337401
 20
167.1611141848
 10
386.2454155714
 20
167.2075838318
 10
386.22532812
 20
167.2415131602
 10
386.1940414607
 20
167.2595840858
 10
386.154617562
 20
167.2600210968
 10
386.1109160216
 20
167.242784287
  0
LINE
  5
9E
330
1F
100
AcDbEntity
  8
0
  6
Continuous
 62
     7
370
    25
100
AcDbLine
 10
386.1109160216
 20
167.242784287
 30
0.0
 11
385.5805859146
 21
166.9366312329
 31
0.0
  0
LWPOLYLINE
  5
9F
330
1F
100
AcDbEntity
  8
0
  6
Continuous
 62
     7
370
    25
100
AcDbPolyline
 90
       11
 70
   128
 43
0.0
 10
385.5805859146
 20
166.9366312329
 10
385.5368843743
 20
166.9034113182
 10
385.4974604756
 20
166.8574564426
 10
385.4661735528
 20
166.803262557
 10
385.4460861014
 20
166.7461407508
 10
385.4391645352
 20
166.6916794815
 10
385.4460861014
 20
166.6452145494
 10
385.4661735528
 20
166.611285221
 10
385.4974604756
 20
166.5932144474
 10
385.5368843743
 20
166.5927774364
 10
385.5805859146
 20
166.6100142462
  0
LINE
  5
A0
330
1F
100
AcDbEntity
  8
0
  6
Continuous
 62
     7
370
    25
100
AcDbLine
 10
374.5511344541
 20
156.7317209241
 30
0.0
 11
377.0967187568
 21
158.2012554622
 31
0.0
  0
LWPOLYLINE
  5
A1
330
1F
100
AcDbEntity
  8
0
  6
Continuous
 62
     7
370
    25
100
AcDbPolyline
 90
       11
 70
   128
 43
0.0
 10
377.0967187568
 20
158.2012554622
 10
377.1404202972
 20
158.2344778103
 10
377.1798439325
 20
158.2804325338
 10
377.2111311186
 20
158.3346241381
 10
377.2312183066
 20
158.3917457922
 10
377.2381398728
 20
158.446204628
 10
377.2312183066
 20
158.4926744271
 10
377.2111311186
 20
158.5266039075
 10
377.1798439325
 20
158.5446720956
 10
377.1404202972
 20
158.5451092587
 10
377.0967187568
 20
158.5278724488
  0
LINE
  5
A2
330
1F
100
AcDbEntity
  8
0
  6
Continuous
 62
     7
370
    25
100
AcDbLine
 10
377.0967187568
 20
158.5278724488
 30
0.0
 11
374.5511344541
 21
157.0583379108
 31
0.0
  0
LWPOLYLINE
  5
A3
330
1F
100
AcDbEntity
  8
0
  6
Continuous
 62
     7
370
    25
100
AcDbPolyline
 90
       11
 70
   128
 43
0.0
 10
374.5511344541
 20
157.0583379108
 10
374.5074329138
 20
157.0251179961
 10
374.4680087517
 20
156.9791629685
 10
374.4367220923
 20
156.9249716684
 10
374.4166343775
 20
156.8678497102
 10
374.4097128113
 20
156.8133884408
 10
374.4166343775
 20
156.7669210752
 10
374.4367220923
 20
156.7329918989
 10
374.4680087517
 20
156.7149234068
 10
374.5074329138
 20
156.7144865478
 10
374.5511344541
 20
156.7317209241
  0
LINE
  5
A4
330
1F
100
AcDbEntity
  8
0
  6
Continuous
 62
     7
370
    25
100
AcDbLine
 10
374.5511344541
 20
160.2428474471
 30
0.0
 11
377.0967187568
 21
161.7123819851
 31
0.0
  0
LWPOLYLINE
  5
A5
330
1F
100
AcDbEntity
  8
0
  6
Continuous
 62
     7
370
    25
100
AcDbPolyline
 90
       11
 70
   128
 43
0.0
 10
377.0967187568
 20
161.7123819851
 10
377.1404202972
 20
161.7456018998
 10
377.1798439325
 20
161.7915566233
 10
377.2111311186
 20
161.845750661
 10
377.2312183066
 20
161.9028723151
 10
377.2381398728
 20
161.9573287174
 10
377.2312183066
 20
162.0037985165
 10
377.2111311186
 20
162.037727997
 10
377.1798439325
 20
162.0557986185
 10
377.1404202972
 20
162.0562357816
 10
377.0967187568
 20
162.0389989717
  0
LINE
  5
A6
330
1F
100
AcDbEntity
  8
0
  6
Continuous
 62
     7
370
    25
100
AcDbLine
 10
377.0967187568
 20
162.0389989717
 30
0.0
 11
374.5511344541
 21
160.5694644337
 31
0.0
  0
LWPOLYLINE
  5
A7
330
1F
100
AcDbEntity
  8
0
  6
Continuous
 62
     7
370
    25
100
AcDbPolyline
 90
       11
 70
   128
 43
0.0
 10
374.5511344541
 20
160.5694644337
 10
374.5074329138
 20
160.536244519
 10
374.4680087517
 20
160.4902894914
 10
374.4367220923
 20
160.4360957578
 10
374.4166343775
 20
160.3789737996
 10
374.4097128113
 20
160.3245125303
 10
374.4166343775
 20
160.2780475981
 10
374.4367220923
 20
160.2441184218
 10
374.4680087517
 20
160.2260474962
 10
374.5074329138
 20
160.2256106372
 10
374.5511344541
 20
160.2428474471
  0
LINE
  5
A8
330
1F
100
AcDbEntity
  8
0
  6
Continuous
 62
     7
370
    25
100
AcDbLine
 10
372.8533708877
 20
162.2839504451
 30
0.0
 11
372.8533708877
 21
154.3226778212
 31
0.0
  0
LINE
  5
A9
330
1F
100
AcDbEntity
  8
0
  6
Continuous
 62
     7
370
    25
100
AcDbLine
 10
391.2381470511
 20
172.8972558136
 30
0.0
 11
372.8533708877
 21
162.2839504451
 31
0.0
  0
LINE
  5
AA
330
1F
100
AcDbEntity
  8
0
  6
Continuous
 62
     7
370
    25
100
AcDbLine
 10
391.2381470511
 20
172.8972558136
 30
0.0
 11
391.2381470511
 21
164.9359831897
 31
0.0
  0
LINE
  5
AB
330
1F
100
AcDbEntity
  8
0
  6
Continuous
 62
     7
370
    25
100
AcDbLine
 10
391.2381470511
 20
164.9359831897
 30
0.0
 11
372.8533708877
 21
154.3226778212
 31
0.0
  0
LINE
  5
AC
330
1F
100
AcDbEntity
  8
0
  6
Continuous
 62
     7
370
    25
100
AcDbLine
 10
374.5511344541
 20
161.9984094918
 30
0.0
 11
377.0967187568
 21
163.4679440298
 31
0.0
  0
LWPOLYLINE
  5
AD
330
1F
100
AcDbEntity
  8
0
  6
Continuous
 62
     7
370
    25
100
AcDbPolyline
 90
       11
 70
   128
 43
0.0
 10
377.0967187568
 20
163.4679440298
 10
377.1404202972
 20
163.5011639445
 10
377.1798439325
 20
163.547118668
 10
377.2111311186
 20
163.6013127057
 10
377.2312183066
 20
163.6584343598
 10
377.2381398728
 20
163.7128956291
 10
377.2312183066
 20
163.7593605612
 10
377.2111311186
 20
163.7932900417
 10
377.1798439325
 20
163.8113606632
 10
377.1404202972
 20
163.8117978263
 10
377.0967187568
 20
163.7945610164
  0
LINE
  5
AE
330
1F
100
AcDbEntity
  8
0
  6
Continuous
 62
     7
370
    25
100
AcDbLine
 10
377.0967187568
 20
163.7945610164
 30
0.0
 11
374.5511344541
 21
162.3250264784
 31
0.0
  0
LWPOLYLINE
  5
AF
330
1F
100
AcDbEntity
  8
0
  6
Continuous
 62
     7
370
    25
100
AcDbPolyline
 90
       11
 70
   128
 43
0.0
 10
374.5511344541
 20
162.3250264784
 10
374.5074329138
 20
162.2918065637
 10
374.4680087517
 20
162.2458515361
 10
374.4367220923
 20
162.1916578025
 10
374.4166343775
 20
162.1345358443
 10
374.4097128113
 20
162.0800794419
 10
374.4166343775
 20
162.0336096429
 10
374.4367220923
 20
161.9996804665
 10
374.4680087517
 20
161.9816095409
 10
374.5074329138
 20
161.9811726819
 10
374.5511344541
 20
161.9984094918
  0
LINE
  5
B0
330
1F
100
AcDbEntity
  8
0
  6
Continuous
 62
     7
370
    25
100
AcDbLine
 10
374.5511344541
 20
158.4872854023
 30
0.0
 11
377.0967187568
 21
159.9568199404
 31
0.0
  0
LWPOLYLINE
  5
B1
330
1F
100
AcDbEntity
  8
0
  6
Continuous
 62
     7
370
    25
100
AcDbPolyline
 90
       11
 70
   128
 43
0.0
 10
377.0967187568
 20
159.9568199404
 10
377.1404202972
 20
159.9900398551
 10
377.1798439325
 20
160.0359945786
 10
377.2111311186
 20
160.0901837493
 10
377.2312183066
 20
160.1473054034
 10
377.2381398728
 20
160.2017666727
 10
377.2312183066
 20
160.2482364718
 10
377.2111311186
 20
160.2821659523
 10
377.1798439325
 20
160.3002317068
 10
377.1404202972
 20
160.3006688699
 10
377.0967187568
 20
160.283436927
  0
LINE
  5
B2
330
1F
100
AcDbEntity
  8
0
  6
Continuous
 62
     7
370
    25
100
AcDbLine
 10
377.0967187568
 20
160.283436927
 30
0.0
 11
374.5511344541
 21
158.813902389
 31
0.0
  0
LWPOLYLINE
  5
B3
330
1F
100
AcDbEntity
  8
0
  6
Continuous
 62
     7
370
    25
100
AcDbPolyline
 90
       11
 70
   128
 43
0.0
 10
374.5511344541
 20
158.813902389
 10
374.5074329138
 20
158.7806776073
 10
374.4680087517
 20
158.7347225797
 10
374.4367220923
 20
158.6805337131
 10
374.4166343775
 20
158.6234117549
 10
374.4097128113
 20
158.5689504856
 10
374.4166343775
 20
158.5224806865
 10
374.4367220923
 20
158.4885515102
 10
374.4680087517
 20
158.4704854515
 10
374.5074329138
 20
158.4700485925
 10
374.5511344541
 20
158.4872854023
  0
LINE
  5
B4
330
1F
100
AcDbEntity
  8
0
  6
Continuous
 62
     7
370
    25
100
AcDbLine
 10
385.5805859146
 20
168.365576291
 30
0.0
 11
386.1109160216
 21
168.6717293451
 31
0.0
  0
LWPOLYLINE
  5
B5
330
1F
100
AcDbEntity
  8
0
  6
Continuous
 62
     7
370
    25
100
AcDbPolyline
 90
       11
 70
   128
 43
0.0
 10
386.1109160216
 20
168.6717293451
 10
386.154617562
 20
168.7049492598
 10
386.1940414607
 20
168.7509041353
 10
386.22532812
 20
168.8050978689
 10
386.2454155714
 20
168.862219675
 10
386.252337401
 20
168.9166810964
 10
386.2454155714
 20
168.9631458765
 10
386.22532812
 20
168.9970752049
 10
386.1940414607
 20
169.0151461305
 10
386.154617562
 20
169.0155831415
 10
386.1109160216
 20
168.9983463317
  0
LINE
  5
B6
330
1F
100
AcDbEntity
  8
0
  6
Continuous
 62
     7
370
    25
100
AcDbLine
 10
386.1109160216
 20
168.9983463317
 30
0.0
 11
385.5805859146
 21
168.6921932776
 31
0.0
  0
LWPOLYLINE
  5
B7
330
1F
100
AcDbEntity
  8
0
  6
Continuous
 62
     7
370
    25
100
AcDbPolyline
 90
       11
 70
   128
 43
0.0
 10
385.5805859146
 20
168.6921932776
 10
385.5368843743
 20
168.6589733629
 10
385.4974604756
 20
168.6130184874
 10
385.4661735528
 20
168.5588246017
 10
385.4460861014
 20
168.5017027956
 10
385.4391645352
 20
168.4472463932
 10
385.4460861014
 20
168.4007765941
 10
385.4661735528
 20
168.3668472657
 10
385.4974604756
 20
168.3487764921
 10
385.5368843743
 20
168.3483394811
 10
385.5805859146
 20
168.365576291
  0
LINE
  5
B8
330
1F
100
AcDbEntity
  8
0
  6
Continuous
 62
     7
370
    25
100
AcDbLine
 10
385.5805859146
 20
164.8544522015
 30
0.0
 11
386.1109160216
 21
165.1606052556
 31
0.0
  0
LWPOLYLINE
  5
B9
330
1F
100
AcDbEntity
  8
0
  6
Continuous
 62
     7
370
    25
100
AcDbPolyline
 90
       11
 70
   128
 43
0.0
 10
386.1109160216
 20
165.1606052556
 10
386.154617562
 20
165.1938251703
 10
386.1940414607
 20
165.2397800459
 10
386.22532812
 20
165.2939689125
 10
386.2454155714
 20
165.3510907187
 10
386.252337401
 20
165.40555214
 10
386.2454155714
 20
165.4520217871
 10
386.22532812
 20
165.4859511155
 10
386.1940414607
 20
165.5040171741
 10
386.154617562
 20
165.5044541852
 10
386.1109160216
 20
165.4872222423
  0
LINE
  5
BA
330
1F
100
AcDbEntity
  8
0
  6
Continuous
 62
     7
370
    25
100
AcDbLine
 10
386.1109160216
 20
165.4872222423
 30
0.0
 11
385.5805859146
 21
165.1810691882
 31
0.0
  0
LWPOLYLINE
  5
BB
330
1F
100
AcDbEntity
  8
0
  6
Continuous
 62
     7
370
    25
100
AcDbPolyline
 90
       11
 70
   128
 43
0.0
 10
385.5805859146
 20
165.1810691882
 10
385.5368843743
 20
165.1478444065
 10
385.4974604756
 20
165.101889531
 10
385.4661735528
 20
165.0477005123
 10
385.4460861014
 20
164.9905787061
 10
385.4391645352
 20
164.9361174368
 10
385.4460861014
 20
164.8896476377
 10
385.4661735528
 20
164.8557183093
 10
385.4974604756
 20
164.8376524027
 10
385.5368843743
 20
164.8372153917
 10
385.5805859146
 20
164.8544522015
  0
LINE
  5
BC
330
1F
100
AcDbEntity
  8
0
  6
Continuous
 62
     7
370
    25
100
AcDbLine
 10
389.5403840115
 20
170.9781360613
 30
0.0
 11
386.9947994454
 21
169.5086013712
 31
0.0
  0
LWPOLYLINE
  5
BD
330
1F
100
AcDbEntity
  8
0
  6
Continuous
 62
     7
370
    25
100
AcDbPolyline
 90
       11
 70
   128
 43
0.0
 10
386.9947994454
 20
169.5086013712
 10
386.951097905
 20
169.4753814565
 10
386.9116740063
 20
169.4294265809
 10
386.8803870836
 20
169.3752326953
 10
386.8602996322
 20
169.3181108891
 10
386.853378066
 20
169.2636544868
 10
386.8602996322
 20
169.2171846877
 10
386.8803870836
 20
169.1832553593
 10
386.9116740063
 20
169.1651845857
 10
386.951097905
 20
169.1647475747
 10
386.9947994454
 20
169.1819843845
  0
LINE
  5
BE
330
1F
100
AcDbEntity
  8
0
  6
Continuous
 62
     7
370
    25
100
AcDbLine
 10
386.9947994454
 20
169.1819843845
 30
0.0
 11
389.5403840115
 21
170.6515190746
 31
0.0
  0
LWPOLYLINE
  5
BF
330
1F
100
AcDbEntity
  8
0
  6
Continuous
 62
     7
370
    25
100
AcDbPolyline
 90
       11
 70
   128
 43
0.0
 10
389.5403840115
 20
170.6515190746
 10
389.5840855519
 20
170.6847389893
 10
389.6235091872
 20
170.7306937128
 10
389.6547963733
 20
170.7848877506
 10
389.6748835613
 20
170.8420094046
 10
389.6818051275
 20
170.8964706739
 10
389.6748835613
 20
170.9429356061
 10
389.6547963733
 20
170.9768650865
 10
389.6235091872
 20
170.994935708
 10
389.5840855519
 20
170.9953728711
 10
389.5403840115
 20
170.9781360613
  0
LINE
  5
C0
330
1F
100
AcDbEntity
  8
0
  6
Continuous
 62
     7
370
    25
100
AcDbLine
 10
389.5403840115
 20
167.4670119719
 30
0.0
 11
386.9947994454
 21
165.9974772818
 31
0.0
  0
LWPOLYLINE
  5
C1
330
1F
100
AcDbEntity
  8
0
  6
Continuous
 62
     7
370
    25
100
AcDbPolyline
 90
       11
 70
   128
 43
0.0
 10
386.9947994454
 20
165.9974772818
 10
386.951097905
 20
165.9642525001
 10
386.9116740063
 20
165.9182976245
 10
386.8803870836
 20
165.8641086058
 10
386.8602996322
 20
165.8069867997
 10
386.853378066
 20
165.7525255304
 10
386.8602996322
 20
165.7060557313
 10
386.8803870836
 20
165.6721264029
 10
386.9116740063
 20
165.6540604963
 10
386.951097905
 20
165.6536234853
 10
386.9947994454
 20
165.6708602951
  0
LINE
  5
C2
330
1F
100
AcDbEntity
  8
0
  6
Continuous
 62
     7
370
    25
100
AcDbLine
 10
386.9947994454
 20
165.6708602951
 30
0.0
 11
389.5403840115
 21
167.1403949852
 31
0.0
  0
LWPOLYLINE
  5
C3
330
1F
100
AcDbEntity
  8
0
  6
Continuous
 62
     7
370
    25
100
AcDbPolyline
 90
       11
 70
   128
 43
0.0
 10
389.5403840115
 20
167.1403949852
 10
389.5840855519
 20
167.1736148999
 10
389.6235091872
 20
167.2195696234
 10
389.6547963733
 20
167.2737587942
 10
389.6748835613
 20
167.3308804482
 10
389.6818051275
 20
167.3853417175
 10
389.6748835613
 20
167.4318115166
 10
389.6547963733
 20
167.4657409971
 10
389.6235091872
 20
167.4838067516
 10
389.5840855519
 20
167.4842439147
 10
389.5403840115
 20
167.4670119719
  0
LINE
  5
C4
330
1F
100
AcDbEntity
  8
0
  6
Continuous
 62
     7
370
    25
100
AcDbLine
 10
359.9133174369
 20
190.980695033
 30
0.0
 11
391.2381470511
 21
172.8972558136
 31
0.0
  0
LINE
  5
C5
330
1F
100
AcDbEntity
  8
0
  6
Continuous
 62
     7
370
    25
100
AcDbLine
 10
372.8533708877
 20
162.2839504451
 30
0.0
 11
341.5285412735
 21
180.3673896645
 31
0.0
  0
LINE
  5
C6
330
1F
100
AcDbEntity
  8
0
  6
Continuous
 62
     7
370
    25
100
AcDbLine
 10
341.5285412735
 20
180.3673896645
 30
0.0
 11
359.9133174369
 21
190.980695033
 31
0.0
  0
LINE
  5
C7
330
1F
100
AcDbEntity
  8
0
  6
Continuous
 62
     7
370
    25
100
AcDbLine
 10
341.5285412735
 20
180.3673896645
 30
0.0
 11
341.5285412735
 21
180.2245199802
 31
0.0
  0
LINE
  5
C8
330
1F
100
AcDbEntity
  8
0
  6
Continuous
 62
     7
370
    25
100
AcDbLine
 10
372.8533708877
 20
154.3226778212
 30
0.0
 11
372.7296277405
 21
154.3941132195
 31
0.0
  0
LINE
  5
C9
330
1F
100
AcDbEntity
  8
0
  6
Continuous
 62
     7
370
    25
100
AcDbLine
 10
370.2901091431
 20
99.7473473573
 30
0.0
 11
372.2536307165
 21
100.880864234
 31
0.0
  0
LINE
  5
CA
330
1F
100
AcDbEntity
  8
0
  6
Continuous
 62
     7
370
    25
100
AcDbLine
 10
370.2901091431
 20
152.6591921232
 30
0.0
 11
370.2901091431
 21
99.7473473573
 31
0.0
  0
LINE
  5
CB
330
1F
100
AcDbEntity
  8
0
  6
Continuous
 62
     7
370
    25
100
AcDbLine
 10
370.2901091431
 20
152.6591921232
 30
0.0
 11
372.3760746871
 21
153.8633943996
 31
0.0
  0
LINE
  5
CC
330
1F
100
AcDbEntity
  8
0
  6
Continuous
 62
     7
370
    25
100
AcDbLine
 10
372.3760746871
 20
153.8633943996
 30
0.0
 11
372.3760746871
 21
153.6593129279
 31
0.0
  0
ARC
  5
CD
330
1F
100
AcDbEntity
  8
0
  6
Continuous
 62
     7
370
    25
100
AcDbCircle
 10
368.0400016736
 20
106.9598493648
 30
0.0
 40
0.3074621443317022
100
AcDbArc
 50
304.9417459007
 51
6.3705880252
  0
LWPOLYLINE
  5
CE
330
1F
100
AcDbEntity
  8
0
  6
Continuous
 62
     7
370
    25
100
AcDbPolyline
 90
       15
 70
   128
 43
0.0
 10
367.5911492977
 20
107.7903732224
 10
367.6408298954
 20
107.811110536
 10
367.7046602438
 20
107.8196458772
 10
367.7742130805
 20
107.8117679243
 10
367.8474895913
 20
107.7877028035
 10
367.9223803265
 20
107.7481426423
 10
367.9967315819
 20
107.6942261079
 10
368.0684044052
 20
107.6275037354
 10
368.1353367616
 20
107.549895348
 10
368.195603594
 20
107.4636328759
 10
368.2474705594
 20
107.3711989156
 10
368.2894446058
 20
107.2752525135
 10
368.3203203334
 20
107.1785525159
 10
368.3392084435
 20
107.083882742
 10
368.345565242
 20
106.9939649895
  0
ARC
  5
CF
330
1F
100
AcDbEntity
  8
0
  6
Continuous
 62
     7
370
    25
100
AcDbCircle
 10
368.0399996246
 20
143.5408785767
 30
0.0
 40
0.3074640777451602
100
AcDbArc
 50
304.9419599481
 51
6.3703739779
  0
LWPOLYLINE
  5
D0
330
1F
100
AcDbEntity
  8
0
  6
Continuous
 62
     7
370
    25
100
AcDbPolyline
 90
       15
 70
   128
 43
0.0
 10
367.5911492977
 20
144.3714008989
 10
367.6408298954
 20
144.3921400376
 10
367.7046602438
 20
144.4006735537
 10
367.7742130805
 20
144.3927968175
 10
367.8474895913
 20
144.3687316967
 10
367.9223803265
 20
144.3291703188
 10
367.9967315819
 20
144.2752537844
 10
368.0684044052
 20
144.208533237
 10
368.1353367616
 20
144.1309242413
 10
368.195603594
 20
144.0446623776
 10
368.2474705594
 20
143.9522259837
 10
368.2894446058
 20
143.85628019
 10
368.3203203334
 20
143.7595820175
 10
368.3392084435
 20
143.6649104185
 10
368.345565242
 20
143.5749932744
  0
LINE
  5
D1
330
1F
100
AcDbEntity
  8
0
  6
Continuous
 62
     7
370
    25
100
AcDbLine
 10
339.2127658234
 20
170.5997605459
 30
0.0
 11
370.2901091431
 21
152.6591921232
 31
0.0
  0
LINE
  5
D2
330
1F
100
AcDbEntity
  8
0
  6
Continuous
 62
     7
370
    25
100
AcDbLine
 10
370.2901091431
 20
99.7473473573
 30
0.0
 11
339.2127658234
 21
117.68791578
 31
0.0
  0
LINE
  5
D3
330
1F
100
AcDbEntity
  8
0
  6
Continuous
 62
     7
370
    25
100
AcDbLine
 10
339.2127658234
 20
117.68791578
 30
0.0
 11
339.2127658234
 21
170.5997605459
 31
0.0
  0
LINE
  5
D4
330
1F
100
AcDbEntity
  8
0
  6
Continuous
 62
     7
370
    25
100
AcDbLine
 10
339.2127658234
 20
170.5997605459
 30
0.0
 11
339.4956544169
 21
170.7630686549
 31
0.0
  0
LINE
  5
D5
330
1F
100
AcDbEntity
  8
0
  6
Continuous
 62
     7
370
    25
100
AcDbLine
 10
372.0931860936
 20
154.0267025085
 30
0.0
 11
372.3760746871
 21
153.8633943996
 31
0.0
  0
SPLINE
  5
D6
330
1F
100
AcDbEntity
  8
0
  6
Continuous
 62
     7
370
    25
100
AcDbSpline
210
0.0
220
0.0
230
1.0
 70
     8
 71
     3
 72
    11
 73
     7
 74
     0
 42
0.000000001
 43
0.00000001
 40
0.0
 40
0.0
 40
0.0
 40
0.0
 40
0.3594914018355667
 40
0.6074333168358641
 40
0.862068048862252
 40
1.0
 40
1.0
 40
1.0
 40
1.0
 10
367.0830816829406
 20
106.2651487441476
 30
0.0
 10
367.0841822041643
 20
106.3040769724958
 30
0.0
 10
367.0860417570041
 20
106.3698540752119
 30
0.0
 10
367.0931406994393
 20
106.4752028106216
 30
0.0
 10
367.0979553831503
 20
106.5537894348847
 30
0.0
 10
367.0970680135077
 20
106.6014750782081
 30
0.0
 10
367.09675622794
 20
106.6182298719971
 30
0.0
  0
SPLINE
  5
D7
330
1F
100
AcDbEntity
  8
0
  6
Continuous
 62
     7
370
    25
100
AcDbSpline
210
0.0
220
0.0
230
1.0
 70
     8
 71
     3
 72
    12
 73
     8
 74
     0
 42
0.000000001
 43
0.00000001
 40
0.0
 40
0.0
 40
0.0
 40
0.0
 40
0.0009137042311958
 40
0.2709766838786232
 40
0.5468793199006784
 40
0.9049603085662874
 40
1.0
 40
1.0
 40
1.0
 40
1.0
 10
367.097974271862
 20
106.0810267168601
 30
0.0
 10
367.0979792023155
 20
106.0810451566299
 30
0.0
 10
367.0994414237866
 20
106.0865138274486
 30
0.0
 10
367.0952986859521
 20
106.1090762596405
 30
0.0
 10
367.089187031065
 20
106.1544252298707
 30
0.0
 10
367.0834869690013
 20
106.2111310116376
 30
0.0
 10
367.0831519511763
 20
106.2557831845481
 30
0.0
 10
367.0830816829406
 20
106.2651487441476
 30
0.0
  0
SPLINE
  5
D8
330
1F
100
AcDbEntity
  8
0
  6
Continuous
 62
     7
370
    25
100
AcDbSpline
210
0.0
220
0.0
230
1.0
 70
     8
 71
     3
 72
    11
 73
     7
 74
     0
 42
0.000000001
 43
0.00000001
 40
0.0
 40
0.0
 40
0.0
 40
0.0
 40
0.3594929607144331
 40
0.607435950876499
 40
0.862073464950308
 40
0.9999999999999999
 40
0.9999999999999999
 40
0.9999999999999999
 40
0.9999999999999999
 10
367.0830816829406
 20
142.8461770290239
 30
0.0
 10
367.0841822043515
 20
142.8128842003723
 30
0.0
 10
367.0860417575074
 20
142.7566292434209
 30
0.0
 10
367.0931407119333
 20
142.7071723259741
 30
0.0
 10
367.0979553670089
 20
142.6776995972554
 30
0.0
 10
367.0970680017994
 20
142.6682047203977
 30
0.0
 10
367.09675622794
 20
142.664868715818
 30
0.0
  0
SPLINE
  5
D9
330
1F
100
AcDbEntity
  8
0
  6
Continuous
 62
     7
370
    25
100
AcDbSpline
210
0.0
220
0.0
230
1.0
 70
     8
 71
     3
 72
    12
 73
     8
 74
     0
 42
0.000000001
 43
0.00000001
 40
0.0
 40
0.0
 40
0.0
 40
0.0
 40
0.0009151176244193
 40
0.2709728016795914
 40
0.5468801426172052
 40
0.9049584863423221
 40
1.0
 40
1.0
 40
1.0
 40
1.0
 10
367.097974271862
 20
143.2020876858148
 30
0.0
 10
367.0979792023423
 20
143.2019765676508
 30
0.0
 10
367.0994391524565
 20
143.1690736932894
 30
0.0
 10
367.0952996093879
 20
143.1009173943026
 30
0.0
 10
367.0891867655062
 20
142.9900702108851
 30
0.0
 10
367.0834869662396
 20
142.9026323347811
 30
0.0
 10
367.0831519519166
 20
142.8559653833236
 30
0.0
 10
367.0830816829406
 20
142.8461770290239
 30
0.0
  0
LWPOLYLINE
  5
DA
330
1F
100
AcDbEntity
  8
0
  6
Continuous
 62
     7
370
    25
100
AcDbPolyline
 90
       22
 70
   128
 43
0.0
 10
365.5979890068
 20
104.3096926716
 10
365.6047209122
 20
104.2518089527
 10
365.6287382938
 20
104.1869891146
 10
365.6696133611
 20
104.1250445756
 10
365.7263893808
 20
104.0674278879
 10
365.7977345123
 20
104.0154906307
 10
365.8819786867
 20
103.9704487385
 10
365.9771441633
 20
103.933358779
 10
366.0810024274
 20
103.9050887554
 10
366.1911184449
 20
103.8863035084
 10
366.3049117748
 20
103.8774416017
 10
366.4197145218
 20
103.8787110642
 10
366.5328356095
 20
103.8900826989
 10
366.6416250549
 20
103.9112894745
 10
366.7435319199
 20
103.9418344333
 10
366.8361664783
 20
103.9810022481
 10
366.9173592209
 20
104.0278738207
 10
366.9852072177
 20
104.081350613
 10
367.0381183713
 20
104.1401801939
 10
367.0748525108
 20
104.2029823957
 10
367.0945519478
 20
104.2682864179
 10
367.0979890233
 20
104.3096926716
  0
LWPOLYLINE
  5
DB
330
1F
100
AcDbEntity
  8
0
  6
Continuous
 62
     7
370
    25
100
AcDbPolyline
 90
       42
 70
   128
 43
0.0
 10
365.8176594349
 20
144.6672714143
 10
365.9048286007
 20
144.624124896
 10
366.0023859109
 20
144.5891663196
 10
366.1080427918
 20
144.5632144184
 10
366.2193252232
 20
144.546877464
 10
366.3336232617
 20
144.540538059
 10
366.4482574213
 20
144.54434523
 10
366.5605408404
 20
144.5582101693
 10
366.6678435557
 20
144.5818068434
 10
366.7676483467
 20
144.6145823336
 10
366.8576171168
 20
144.6557696096
 10
366.9356393628
 20
144.704402128
 10
366.9998890723
 20
144.7593405966
 10
367.0488584419
 20
144.819296088
 10
367.0814000237
 20
144.88286532
 10
367.0967509596
 20
144.9485568111
 10
367.0945508941
 20
145.014830418
 10
367.0748535644
 20
145.0801344402
 10
367.0381173176
 20
145.1429366419
 10
366.985206164
 20
145.2017662229
 10
366.9173592209
 20
145.2552436234
 10
366.8361664783
 20
145.302115196
 10
366.7435308663
 20
145.3412824026
 10
366.6416240013
 20
145.3718273614
 10
366.5328366632
 20
145.393034137
 10
366.4197134681
 20
145.4044057716
 10
366.3049117748
 20
145.4056758424
 10
366.1911184449
 20
145.3968139358
 10
366.0810024274
 20
145.3780274722
 10
365.9771441633
 20
145.3497586651
 10
365.8819776331
 20
145.3126680973
 10
365.7977355659
 20
145.2676262052
 10
365.7263893808
 20
145.2156883397
 10
365.6696133611
 20
145.1580728685
 10
365.6287382938
 20
145.0961283295
 10
365.6047219658
 20
145.0313078831
 10
365.5981270377
 20
144.9651309914
 10
365.6091073454
 20
144.8991487466
 10
365.6374068469
 20
144.8349067663
 10
365.6823627828
 20
144.773911739
 10
365.7429193748
 20
144.7175931026
 10
365.8176594349
 20
144.6672714143
  0
LINE
  5
DC
330
1F
100
AcDbEntity
  8
0
  6
Continuous
 62
     7
370
    25
100
AcDbLine
 10
370.2901091431
 20
78.3539785336
 30
0.0
 11
372.3760746871
 21
79.55818081
 31
0.0
  0
LINE
  5
DD
330
1F
100
AcDbEntity
  8
0
  6
Continuous
 62
     7
370
    25
100
AcDbLine
 10
370.2901091431
 20
99.4207315873
 30
0.0
 11
370.2901091431
 21
78.3539785336
 31
0.0
  0
LINE
  5
DE
330
1F
100
AcDbEntity
  8
0
  6
Continuous
 62
     7
370
    25
100
AcDbLine
 10
370.2901091431
 20
99.4207315873
 30
0.0
 11
372.2536307165
 21
100.554248464
 31
0.0
  0
LINE
  5
DF
330
1F
100
AcDbEntity
  8
0
  6
Continuous
 62
     7
370
    25
100
AcDbLine
 10
372.3760746871
 20
80.1012462201
 30
0.0
 11
372.3760746871
 21
79.55818081
 31
0.0
  0
LINE
  5
E0
330
1F
100
AcDbEntity
  8
0
  6
Continuous
 62
     7
370
    25
100
AcDbLine
 10
339.2127658234
 20
117.3613000101
 30
0.0
 11
370.2901091431
 21
99.4207315873
 31
0.0
  0
LINE
  5
E1
330
1F
100
AcDbEntity
  8
0
  6
Continuous
 62
     7
370
    25
100
AcDbLine
 10
339.2127658234
 20
117.3613000101
 30
0.0
 11
339.4956544169
 21
117.524608119
 31
0.0
  0
LINE
  5
E2
330
1F
100
AcDbEntity
  8
0
  6
Continuous
 62
     7
370
    25
100
AcDbLine
 10
372.0931860936
 20
100.7882419726
 30
0.0
 11
372.2536307165
 21
100.6956192634
 31
0.0
  0
ARC
  5
E3
330
1F
100
AcDbEntity
  8
0
  6
Continuous
 62
     7
370
    25
100
AcDbCircle
 10
366.8909462025
 20
99.1311594767
 30
0.0
 40
0.3074687438319601
100
AcDbArc
 50
304.9424765154
 51
6.3698574104
  0
LWPOLYLINE
  5
E4
330
1F
100
AcDbEntity
  8
0
  6
Continuous
 62
     7
370
    25
100
AcDbPolyline
 90
       15
 70
   128
 43
0.0
 10
366.4421008204
 20
99.9616807785
 10
366.4917814181
 20
99.9824174837
 10
366.5556117665
 20
99.9909534332
 10
366.6251646032
 20
99.9830754803
 10
366.6984411141
 20
99.9590103596
 10
366.7733318492
 20
99.9194501984
 10
366.8476831046
 20
99.8655336639
 10
366.9193559279
 20
99.7988106831
 10
366.9862882843
 20
99.7212029041
 10
367.0465551167
 20
99.6349398237
 10
367.0984210285
 20
99.5425064716
 10
367.1403961286
 20
99.4465588528
 10
367.1712718561
 20
99.3498594636
 10
367.1901599663
 20
99.2551890813
 10
367.1965167647
 20
99.1652719372
  0
ARC
  5
E5
330
1F
100
AcDbEntity
  8
0
  6
Continuous
 62
     7
370
    25
100
AcDbCircle
 10
342.8846787866
 20
112.9896847845
 30
0.0
 40
0.3074615732051325
100
AcDbArc
 50
304.9414747936
 51
6.3704173991
  0
LWPOLYLINE
  5
E6
330
1F
100
AcDbEntity
  8
0
  6
Continuous
 62
     7
370
    25
100
AcDbPolyline
 90
       15
 70
   128
 43
0.0
 10
342.4358248911
 20
113.8202088854
 10
342.4855065424
 20
113.8409449824
 10
342.5493358371
 20
113.8494815402
 10
342.6188897276
 20
113.841602979
 10
342.6921651847
 20
113.8175384665
 10
342.7670559198
 20
113.7779783053
 10
342.841408229
 20
113.7240611626
 10
342.9130810522
 20
113.6573381817
 10
342.9800134086
 20
113.5797304028
 10
343.0402791873
 20
113.4934679306
 10
343.0921461528
 20
113.4010339702
 10
343.1341212529
 20
113.3050863515
 10
343.1649969804
 20
113.2083869623
 10
343.1838850906
 20
113.11371658
 10
343.190241889
 20
113.0237994359
  0
LINE
  5
E7
330
1F
100
AcDbEntity
  8
0
  6
Continuous
 62
     7
370
    25
100
AcDbLine
 10
370.2901091431
 20
78.3539785336
 30
0.0
 11
339.2127658234
 21
96.2945469564
 31
0.0
  0
LINE
  5
E8
330
1F
100
AcDbEntity
  8
0
  6
Continuous
 62
     7
370
    25
100
AcDbLine
 10
339.2127658234
 20
96.2945469564
 30
0.0
 11
339.2127658234
 21
112.6578479787
 31
0.0
  0
LINE
  5
E9
330
1F
100
AcDbEntity
  8
0
  6
Continuous
 62
     7
370
    25
100
AcDbLine
 10
339.2127658234
 20
113.8402071647
 30
0.0
 11
339.2127658234
 21
117.3613000101
 31
0.0
  0
SPLINE
  5
EA
330
1F
100
AcDbEntity
  8
0
  6
Continuous
 62
     7
370
    25
100
AcDbSpline
210
0.0
220
0.0
230
1.0
 70
     8
 71
     3
 72
    14
 73
    10
 74
     0
 42
0.000000001
 43
0.00000001
 40
0.0
 40
0.0
 40
0.0
 40
0.0
 40
0.0542718074559109
 40
0.2243337030106177
 40
0.4070054734829588
 40
0.5913139553738823
 40
0.7916044730179084
 40
0.9495235665599323
 40
0.9999999999999999
 40
0.9999999999999999
 40
0.9999999999999999
 40
0.9999999999999999
 10
365.8052556173767
 20
99.03718429909172
 30
0.0
 10
365.7939720470089
 20
99.04400348289089
 30
0.0
 10
365.7473311621287
 20
99.07219072825619
 30
0.0
 10
365.6569445356086
 20
99.11648520823196
 30
0.0
 10
365.5406114181989
 20
99.17371734775705
 30
0.0
 10
365.4391035354599
 20
99.23226595837654
 30
0.0
 10
365.3815564002506
 20
99.27589308403057
 30
0.0
 10
365.3528464117966
 20
99.2999381562424
 30
0.0
 10
365.3436692504616
 20
99.30401997805207
 30
0.0
 10
365.3414464082537
 20
99.30500865477593
 30
0.0
  0
SPLINE
  5
EB
330
1F
100
AcDbEntity
  8
0
  6
Continuous
 62
     7
370
    25
100
AcDbSpline
210
0.0
220
0.0
230
1.0
 70
     8
 71
     3
 72
    14
 73
    10
 74
     0
 42
0.000000001
 43
0.00000001
 40
0.0
 40
0.0
 40
0.0
 40
0.0
 40
0.0619766751365331
 40
0.232861367695786
 40
0.413825572879683
 40
0.5963319047937266
 40
0.7989326283709284
 40
0.9588562607709157
 40
1.0
 40
1.0
 40
1.0
 40
1.0
 10
341.3353949108718
 20
113.1632685023516
 30
0.0
 10
341.3381695710838
 20
113.1619655949528
 30
0.0
 10
341.3485946410064
 20
113.1570702565339
 30
0.0
 10
341.3788850673764
 20
113.1314584735888
 30
0.0
 10
341.4384468874183
 20
113.0873417088557
 30
0.0
 10
341.5406110844628
 20
113.0288726322917
 30
0.0
 10
341.6598392280482
 20
112.9705297152177
 30
0.0
 10
341.7492319946311
 20
112.9263007118307
 30
0.0
 10
341.7908598150254
 20
112.9008528251832
 30
0.0
 10
341.7993779757448
 20
112.8956455098258
 30
0.0
  0
LWPOLYLINE
  5
EC
330
1F
100
AcDbEntity
  8
0
  6
Continuous
 62
     7
370
    25
100
AcDbPolyline
 90
       17
 70
   128
 43
0.0
 10
339.4248982876
 20
114.0137944341
 10
339.3439436747
 20
113.9598827778
 10
339.2648867236
 20
113.8928806395
 10
339.189580842
 20
113.8143592657
 10
339.1197898756
 20
113.7261582027
 10
339.0571501756
 20
113.630343931
 10
339.0031305599
 20
113.5291636326
 10
338.9589975411
 20
113.4249886163
 10
338.9257837172
 20
113.3202595667
 10
338.9042688047
 20
113.2174317934
 10
338.8949575122
 20
113.1189174372
 10
338.8980679496
 20
113.0270228095
 10
338.91352636
 20
112.9439039818
 10
338.9409702804
 20
112.8715065561
 10
338.9797580251
 20
112.8115309878
 10
339.0289792221
 20
112.7653802643
 10
339.0499293668
 20
112.7518524013
  0
LWPOLYLINE
  5
ED
330
1F
100
AcDbEntity
  8
0
  6
Continuous
 62
     7
370
    25
100
AcDbPolyline
 90
        7
 70
   128
 43
0.0
 10
339.7998682621
 20
114.0509258086
 10
339.7926463996
 20
114.0549368634
 10
339.7300077534
 20
114.0784294853
 10
339.6602167869
 20
114.0860516135
 10
339.5849098517
 20
114.0776260589
 10
339.5058529006
 20
114.0533509844
 10
339.4248982876
 20
114.0137944341
  0
LWPOLYLINE
  5
EE
330
1F
100
AcDbEntity
  8
0
  6
Continuous
 62
     7
370
    25
100
AcDbPolyline
 90
       42
 70
   128
 43
0.0
 10
366.4363772784
 20
97.1956877859
 10
366.4425918312
 20
97.1057919719
 10
366.4610921903
 20
97.0251799527
 10
366.4914431896
 20
96.9557407591
 10
366.5329346546
 20
96.8991012399
 10
366.5845929932
 20
96.8565889505
 10
366.645207537
 20
96.8292011234
 10
366.7133579374
 20
96.817580331
 10
366.7874468287
 20
96.8219968396
 10
366.8657367072
 20
96.8423479976
 10
366.9463941849
 20
96.8781582314
 10
367.0275268682
 20
96.9285869509
 10
367.1072349882
 20
96.9924522708
 10
367.1836482782
 20
97.0682559505
 10
367.2549776046
 20
97.1542241501
 10
367.3195497375
 20
97.2483396706
 10
367.3758505514
 20
97.3483960949
 10
367.4225629573
 20
97.4520501042
 10
367.4585890297
 20
97.5568707538
 10
367.4830868854
 20
97.6604021317
 10
367.4954812199
 20
97.7602168943
 10
367.4954812199
 20
97.8539752768
 10
367.4830868854
 20
97.9394798454
 10
367.4585890297
 20
98.0147266012
 10
367.4225629573
 20
98.0779512161
 10
367.3758505514
 20
98.1276734464
 10
367.3195497375
 20
98.1627263346
 10
367.2549776046
 20
98.1822884574
 10
367.1836482782
 20
98.1859003529
 10
367.1072349882
 20
98.1734803426
 10
367.0275268682
 20
98.1453166261
 10
366.9463941849
 20
98.1020715433
 10
366.8657367072
 20
98.0447554189
 10
366.7874468287
 20
97.974716224
 10
366.7133579374
 20
97.8935915194
 10
366.645207537
 20
97.8032847329
 10
366.5845929932
 20
97.7059128431
 10
366.5329346546
 20
97.6037583223
 10
366.4914431896
 20
97.4992137773
 10
366.4610921903
 20
97.3947308491
 10
366.4425918312
 20
97.2927587699
 10
366.4363772784
 20
97.1956877859
  0
LINE
  5
EF
330
1F
100
AcDbEntity
  8
0
  6
Continuous
 62
     7
370
    25
100
AcDbLine
 10
373.9493870392
 20
77.028813463
 30
0.0
 11
374.1968743873
 21
77.171684868
 31
0.0
  0
LINE
  5
F0
330
1F
100
AcDbEntity
  8
0
  6
Continuous
 62
     7
370
    25
100
AcDbLine
 10
373.9493870392
 20
81.0706992813
 30
0.0
 11
373.9493870392
 21
77.028813463
 31
0.0
  0
LINE
  5
F1
330
1F
100
AcDbEntity
  8
0
  6
Continuous
 62
     7
370
    25
100
AcDbLine
 10
374.1968743873
 20
81.2135706863
 30
0.0
 11
374.1968743873
 21
77.171684868
 31
0.0
  0
LINE
  5
F2
330
1F
100
AcDbEntity
  8
0
  6
Continuous
 62
     7
370
    25
100
AcDbLine
 10
373.9493870392
 20
77.028813463
 30
0.0
 11
370.9719977368
 21
78.7476237214
 31
0.0
  0
LINE
  5
F3
330
1F
100
AcDbEntity
  8
0
  6
Continuous
 62
     7
370
    25
100
AcDbLine
 10
370.2901091431
 20
152.9858091099
 30
0.0
 11
370.2901091431
 21
160.9470817337
 31
0.0
  0
LINE
  5
F4
330
1F
100
AcDbEntity
  8
0
  6
Continuous
 62
     7
370
    25
100
AcDbLine
 10
370.2901091431
 20
160.9470817337
 30
0.0
 11
372.7296277405
 21
162.3553858434
 31
0.0
  0
LINE
  5
F5
330
1F
100
AcDbEntity
  8
0
  6
Continuous
 62
     7
370
    25
100
AcDbLine
 10
372.7296277405
 20
162.3553858434
 30
0.0
 11
372.7296277405
 21
154.3941132195
 31
0.0
  0
LINE
  5
F6
330
1F
100
AcDbEntity
  8
0
  6
Continuous
 62
     7
370
    25
100
AcDbLine
 10
370.2901091431
 20
152.9858091099
 30
0.0
 11
372.7296277405
 21
154.3941132195
 31
0.0
  0
LINE
  5
F7
330
1F
100
AcDbEntity
  8
0
  6
Continuous
 62
     7
370
    25
100
AcDbLine
 10
370.2901091431
 20
160.9470817337
 30
0.0
 11
339.2127658234
 21
178.8876501565
 31
0.0
  0
LINE
  5
F8
330
1F
100
AcDbEntity
  8
0
  6
Continuous
 62
     7
370
    25
100
AcDbLine
 10
339.2127658234
 20
178.8876501565
 30
0.0
 11
341.6522844208
 21
180.2959542662
 31
0.0
  0
LINE
  5
F9
330
1F
100
AcDbEntity
  8
0
  6
Continuous
 62
     7
370
    25
100
AcDbLine
 10
341.6522844208
 20
180.2959542662
 30
0.0
 11
372.7296277405
 21
162.3553858434
 31
0.0
  0
LINE
  5
FA
330
1F
100
AcDbEntity
  8
0
  6
Continuous
 62
     7
370
    25
100
AcDbLine
 10
339.2127658234
 20
170.9263775326
 30
0.0
 11
370.2901091431
 21
152.9858091099
 31
0.0
  0
LINE
  5
FB
330
1F
100
AcDbEntity
  8
0
  6
Continuous
 62
     7
370
    25
100
AcDbLine
 10
339.2127658234
 20
178.8876501565
 30
0.0
 11
339.2127658234
 21
170.9263775326
 31
0.0
  0
LINE
  5
FC
330
1F
100
AcDbEntity
  8
0
  6
Continuous
 62
     7
370
    25
100
AcDbLine
 10
369.9719109736
 20
153.5369445048
 30
0.0
 11
339.5309639929
 21
171.1101291409
 31
0.0
  0
LINE
  5
FD
330
1F
100
AcDbEntity
  8
0
  6
Continuous
 62
     7
370
    25
100
AcDbLine
 10
369.9719109736
 20
160.7633325589
 30
0.0
 11
369.9719109736
 21
153.5369445048
 31
0.0
  0
LINE
  5
FE
330
1F
100
AcDbEntity
  8
0
  6
Continuous
 62
     7
370
    25
100
AcDbLine
 10
339.5309639929
 20
178.336517195
 30
0.0
 11
369.9719109736
 21
160.7633325589
 31
0.0
  0
LINE
  5
FF
330
1F
100
AcDbEntity
  8
0
  6
Continuous
 62
     7
370
    25
100
AcDbLine
 10
339.5309639929
 20
171.1101291409
 30
0.0
 11
339.5309639929
 21
178.336517195
 31
0.0
  0
LINE
  5
100
330
1F
100
AcDbEntity
  8
0
  6
Continuous
 62
     7
370
    25
100
AcDbLine
 10
369.9719120272
 20
160.1509190739
 30
0.0
 11
339.5663199305
 21
177.70369377
 31
0.0
  0
LINE
  5
101
330
1F
100
AcDbEntity
  8
0
  6
Continuous
 62
     7
370
    25
100
AcDbLine
 10
339.5663199305
 20
178.307644881
 30
0.0
 11
339.5663199305
 21
177.70369377
 31
0.0
  0
LINE
  5
102
330
1F
100
AcDbEntity
  8
0
  6
Continuous
 62
     7
370
    25
100
AcDbLine
 10
369.9719109736
 20
159.4816557218
 30
0.0
 11
339.6370307519
 21
176.9936093214
 31
0.0
  0
LINE
  5
103
330
1F
100
AcDbEntity
  8
0
  6
Continuous
 62
     7
370
    25
100
AcDbLine
 10
339.6370307519
 20
176.9936093214
 30
0.0
 11
339.6370307519
 21
177.6628702022
 31
0.0
  0
LINE
  5
104
330
1F
100
AcDbEntity
  8
0
  6
Continuous
 62
     7
370
    25
100
AcDbLine
 10
369.9719109736
 20
159.3751980672
 30
0.0
 11
339.5663199305
 21
176.9279721551
 31
0.0
  0
LINE
  5
105
330
1F
100
AcDbEntity
  8
0
  6
Continuous
 62
     7
370
    25
100
AcDbLine
 10
369.9719120272
 20
158.7219740158
 30
0.0
 11
339.5663199305
 21
176.274748712
 31
0.0
  0
LINE
  5
106
330
1F
100
AcDbEntity
  8
0
  6
Continuous
 62
     7
370
    25
100
AcDbLine
 10
339.5663199305
 20
176.878694956
 30
0.0
 11
339.5663199305
 21
176.274748712
 31
0.0
  0
LINE
  5
107
330
1F
100
AcDbEntity
  8
0
  6
Continuous
 62
     7
370
    25
100
AcDbLine
 10
369.9719109736
 20
158.0527106638
 30
0.0
 11
339.6370307519
 21
175.5646642634
 31
0.0
  0
LINE
  5
108
330
1F
100
AcDbEntity
  8
0
  6
Continuous
 62
     7
370
    25
100
AcDbLine
 10
339.6370307519
 20
175.5646642634
 30
0.0
 11
339.6370307519
 21
176.2339251442
 31
0.0
  0
LINE
  5
109
330
1F
100
AcDbEntity
  8
0
  6
Continuous
 62
     7
370
    25
100
AcDbLine
 10
369.9719109736
 20
157.9462530092
 30
0.0
 11
339.5663199305
 21
175.499027097
 31
0.0
  0
LINE
  5
10A
330
1F
100
AcDbEntity
  8
0
  6
Continuous
 62
     7
370
    25
100
AcDbLine
 10
369.9719120272
 20
157.2930240908
 30
0.0
 11
339.5663199305
 21
174.845798787
 31
0.0
  0
LINE
  5
10B
330
1F
100
AcDbEntity
  8
0
  6
Continuous
 62
     7
370
    25
100
AcDbLine
 10
339.5663199305
 20
175.449749898
 30
0.0
 11
339.5663199305
 21
174.845798787
 31
0.0
  0
LINE
  5
10C
330
1F
100
AcDbEntity
  8
0
  6
Continuous
 62
     7
370
    25
100
AcDbLine
 10
369.9719109736
 20
156.6237656057
 30
0.0
 11
339.6370307519
 21
174.1357192053
 31
0.0
  0
LINE
  5
10D
330
1F
100
AcDbEntity
  8
0
  6
Continuous
 62
     7
370
    25
100
AcDbLine
 10
339.6370307519
 20
174.1357192053
 30
0.0
 11
339.6370307519
 21
174.8049800861
 31
0.0
  0
LINE
  5
10E
330
1F
100
AcDbEntity
  8
0
  6
Continuous
 62
     7
370
    25
100
AcDbLine
 10
369.9719109736
 20
156.5173079511
 30
0.0
 11
339.5663199305
 21
174.070082039
 31
0.0
  0
LINE
  5
10F
330
1F
100
AcDbEntity
  8
0
  6
Continuous
 62
     7
370
    25
100
AcDbLine
 10
369.9719120272
 20
155.8640790327
 30
0.0
 11
339.5663199305
 21
173.4168537289
 31
0.0
  0
LINE
  5
110
330
1F
100
AcDbEntity
  8
0
  6
Continuous
 62
     7
370
    25
100
AcDbLine
 10
339.5663199305
 20
174.0208048399
 30
0.0
 11
339.5663199305
 21
173.4168537289
 31
0.0
  0
LINE
  5
111
330
1F
100
AcDbEntity
  8
0
  6
Continuous
 62
     7
370
    25
100
AcDbLine
 10
369.9719109736
 20
155.1948156807
 30
0.0
 11
339.6370307519
 21
172.7067692803
 31
0.0
  0
LINE
  5
112
330
1F
100
AcDbEntity
  8
0
  6
Continuous
 62
     7
370
    25
100
AcDbLine
 10
339.6370307519
 20
172.7067692803
 30
0.0
 11
339.6370307519
 21
173.3760350281
 31
0.0
  0
LINE
  5
113
330
1F
100
AcDbEntity
  8
0
  6
Continuous
 62
     7
370
    25
100
AcDbLine
 10
369.9719109736
 20
155.0883604596
 30
0.0
 11
339.5663199305
 21
172.6411345475
 31
0.0
  0
LINE
  5
114
330
1F
100
AcDbEntity
  8
0
  6
Continuous
 62
     7
370
    25
100
AcDbLine
 10
369.9719120272
 20
154.4351315412
 30
0.0
 11
339.5663199305
 21
171.9879062374
 31
0.0
  0
LINE
  5
115
330
1F
100
AcDbEntity
  8
0
  6
Continuous
 62
     7
370
    25
100
AcDbLine
 10
339.5663199305
 20
172.5918573484
 30
0.0
 11
339.5663199305
 21
171.9879062374
 31
0.0
  0
LINE
  5
116
330
1F
100
AcDbEntity
  8
0
  6
Continuous
 62
     7
370
    25
100
AcDbLine
 10
369.9719109736
 20
153.7658706227
 30
0.0
 11
339.6370307519
 21
171.2778242222
 31
0.0
  0
LINE
  5
117
330
1F
100
AcDbEntity
  8
0
  6
Continuous
 62
     7
370
    25
100
AcDbLine
 10
339.6370307519
 20
171.2778242222
 30
0.0
 11
339.6370307519
 21
171.9470851031
 31
0.0
  0
LINE
  5
118
330
1F
100
AcDbEntity
  8
0
  6
Continuous
 62
     7
370
    25
100
AcDbLine
 10
339.5663199305
 20
171.1305396892
 30
0.0
 11
339.5309639929
 21
171.1101291409
 31
0.0
  0
LINE
  5
119
330
1F
100
AcDbEntity
  8
0
  6
Continuous
 62
     7
370
    25
100
AcDbLine
 10
339.5663199305
 20
171.1305396892
 30
0.0
 11
369.9719120272
 21
153.5777649931
 31
0.0
  0
LINE
  5
11A
330
1F
100
AcDbEntity
  8
0
  6
Continuous
 62
     7
370
    25
100
AcDbLine
 10
339.566366292
 20
171.1305121565
 30
0.0
 11
339.7292880959
 21
171.2245649119
 31
0.0
  0
LINE
  5
11B
330
1F
100
AcDbEntity
  8
0
  6
Continuous
 62
     7
370
    25
100
AcDbLine
 10
340.8747214273
 20
171.8858094992
 30
0.0
 11
340.9669260878
 21
171.9390381166
 31
0.0
  0
LINE
  5
11C
330
1F
100
AcDbEntity
  8
0
  6
Continuous
 62
     7
370
    25
100
AcDbLine
 10
339.5663199305
 20
177.70369377
 30
0.0
 11
339.5663199305
 21
176.878694956
 31
0.0
  0
LINE
  5
11D
330
1F
100
AcDbEntity
  8
0
  6
Continuous
 62
     7
370
    25
100
AcDbLine
 10
339.5663199305
 20
176.274748712
 30
0.0
 11
339.5663199305
 21
175.449749898
 31
0.0
  0
LINE
  5
11E
330
1F
100
AcDbEntity
  8
0
  6
Continuous
 62
     7
370
    25
100
AcDbLine
 10
339.5663199305
 20
174.845798787
 30
0.0
 11
339.5663199305
 21
174.0208048399
 31
0.0
  0
LINE
  5
11F
330
1F
100
AcDbEntity
  8
0
  6
Continuous
 62
     7
370
    25
100
AcDbLine
 10
339.5663199305
 20
173.4168537289
 30
0.0
 11
339.5663199305
 21
172.5918573484
 31
0.0
  0
LINE
  5
120
330
1F
100
AcDbEntity
  8
0
  6
Continuous
 62
     7
370
    25
100
AcDbLine
 10
339.5663199305
 20
171.9879062374
 30
0.0
 11
339.5663199305
 21
171.1305396892
 31
0.0
  0
LINE
  5
121
330
1F
100
AcDbEntity
  8
0
  6
Continuous
 62
     7
370
    25
100
AcDbLine
 10
339.5663199305
 20
178.3161036619
 30
0.0
 11
339.5663199305
 21
178.307644881
 31
0.0
  0
LINE
  5
122
330
1F
100
AcDbEntity
  8
0
  6
Continuous
 62
     7
370
    25
100
AcDbLine
 10
341.6876403583
 20
172.845468416
 30
0.0
 11
341.6876403583
 21
172.9519259203
 31
0.0
  0
LINE
  5
123
330
1F
100
AcDbEntity
  8
0
  6
Continuous
 62
     7
370
    25
100
AcDbLine
 10
341.6876403583
 20
174.2744134741
 30
0.0
 11
341.6876403583
 21
174.3808734119
 31
0.0
  0
LINE
  5
124
330
1F
100
AcDbEntity
  8
0
  6
Continuous
 62
     7
370
    25
100
AcDbLine
 10
341.6876403583
 20
175.7033585321
 30
0.0
 11
341.6876403583
 21
175.8098184699
 31
0.0
  0
LINE
  5
125
330
1F
100
AcDbEntity
  8
0
  6
Continuous
 62
     7
370
    25
100
AcDbLine
 10
391.2381475779
 20
166.5687993769
 30
0.0
 11
392.6523608453
 21
165.7523914354
 31
0.0
  0
LINE
  5
126
330
1F
100
AcDbEntity
  8
0
  6
Continuous
 62
     7
370
    25
100
AcDbLine
 10
392.6523608453
 20
165.7523914354
 30
0.0
 11
372.8533708877
 21
154.3226778212
 31
0.0
  0
LINE
  5
127
330
1F
100
AcDbEntity
  8
0
  6
Continuous
 62
     7
370
    25
100
AcDbLine
 10
392.6523608453
 20
91.8676955735
 30
0.0
 11
373.065503352
 21
80.5604434243
 31
0.0
  0
LINE
  5
128
330
1F
100
AcDbEntity
  8
0
  6
Continuous
 62
     7
370
    25
100
AcDbLine
 10
372.8533708877
 20
154.3226778212
 30
0.0
 11
372.8533708877
 21
154.1185428129
 31
0.0
  0
LINE
  5
129
330
1F
100
AcDbEntity
  8
0
  6
Continuous
 62
     7
370
    25
100
AcDbLine
 10
392.6523608453
 20
91.8676955735
 30
0.0
 11
392.6523608453
 21
165.7523914354
 31
0.0
  0
LINE
  5
12A
330
1F
100
AcDbEntity
  8
0
  6
Continuous
 62
     7
370
    25
100
AcDbLine
 10
374.2675846819
 20
81.2462258754
 30
0.0
 11
374.2605134944
 21
81.250307985
 31
0.0
  0
LINE
  5
12B
330
1F
100
AcDbEntity
  8
0
  6
Continuous
 62
     7
370
    25
100
AcDbLine
 10
374.2675846819
 20
77.8657456604
 30
0.0
 11
374.2675846819
 21
81.2462258754
 31
0.0
  0
LINE
  5
12C
330
1F
100
AcDbEntity
  8
0
  6
Continuous
 62
     7
370
    25
100
AcDbLine
 10
374.2675846819
 20
77.8657456604
 30
0.0
 11
374.1968749142
 21
77.9065655405
 31
0.0
  0
LINE
  5
12D
330
1F
100
AcDbEntity
  8
0
  6
Continuous
 62
     7
370
    25
100
AcDbLine
 10
390.1916292122
 20
90.4389811094
 30
0.0
 11
374.2675846819
 21
81.2462258754
 31
0.0
  0
LINE
  5
12E
330
1F
100
AcDbEntity
  8
0
  6
Continuous
 62
     7
370
    25
100
AcDbLine
 10
390.1916292122
 20
90.4389811094
 30
0.0
 11
390.1916292122
 21
86.7237195782
 31
0.0
  0
LINE
  5
12F
330
1F
100
AcDbEntity
  8
0
  6
Continuous
 62
     7
370
    25
100
AcDbLine
 10
390.1916292122
 20
86.7237195782
 30
0.0
 11
386.6560952536
 21
84.6826992682
 31
0.0
  0
LINE
  5
130
330
1F
100
AcDbEntity
  8
0
  6
Continuous
 62
     7
370
    25
100
AcDbLine
 10
386.6560952536
 20
84.6826992682
 30
0.0
 11
386.6560952536
 21
84.4459020746
 31
0.0
  0
LINE
  5
131
330
1F
100
AcDbEntity
  8
0
  6
Continuous
 62
     7
370
    25
100
AcDbLine
 10
375.5721966502
 20
78.0473036089
 30
0.0
 11
386.6560952536
 21
84.4459020746
 31
0.0
  0
LINE
  5
132
330
1F
100
AcDbEntity
  8
0
  6
Continuous
 62
     7
370
    25
100
AcDbLine
 10
375.5721966502
 20
78.0473036089
 30
0.0
 11
375.077221954
 21
78.3331393088
 31
0.0
  0
LINE
  5
133
330
1F
100
AcDbEntity
  8
0
  6
Continuous
 62
     7
370
    25
100
AcDbLine
 10
375.077221954
 20
78.3331393088
 30
0.0
 11
374.2675846819
 21
77.8657456604
 31
0.0
  0
LWPOLYLINE
  5
134
330
1F
100
AcDbEntity
  8
0
  6
Continuous
 62
     7
370
    25
100
AcDbPolyline
 90
       11
 70
   128
 43
0.0
 10
383.2831959405
 20
85.5118054604
 10
383.2394943343
 20
85.4785830742
 10
383.2000705673
 20
85.4326282746
 10
383.1687836775
 20
85.3784368415
 10
383.148696259
 20
85.3213174878
 10
383.141774594
 20
85.2668561615
 10
383.148696259
 20
85.2203864194
 10
383.1687836775
 20
85.186457072
 10
383.2000705673
 20
85.1683911464
 10
383.2394943343
 20
85.1679516259
 10
383.2831959405
 20
85.1851884737
  0
LINE
  5
135
330
1F
100
AcDbEntity
  8
0
  6
Continuous
 62
     7
370
    25
100
AcDbLine
 10
383.2831959405
 20
85.1851884737
 30
0.0
 11
385.8287802762
 21
86.6547230307
 31
0.0
  0
LWPOLYLINE
  5
136
330
1F
100
AcDbEntity
  8
0
  6
Continuous
 62
     7
370
    25
100
AcDbPolyline
 90
       11
 70
   128
 43
0.0
 10
385.8287802762
 20
86.6547230307
 10
385.87248208
 20
86.6879430975
 10
385.9119057152
 20
86.7339002545
 10
385.943192638
 20
86.7880892732
 10
385.9632800894
 20
86.8452110793
 10
385.9702016556
 20
86.8996723486
 10
385.9632800894
 20
86.9461421477
 10
385.943192638
 20
86.9800690426
 10
385.9119057152
 20
86.9981373827
 10
385.87248208
 20
86.9985745458
 10
385.8287802762
 20
86.9813400174
  0
LINE
  5
137
330
1F
100
AcDbEntity
  8
0
  6
Continuous
 62
     7
370
    25
100
AcDbLine
 10
385.8287802762
 20
86.9813400174
 30
0.0
 11
383.2831959405
 21
85.5118054604
 31
0.0
  0
LWPOLYLINE
  5
138
330
1F
100
AcDbEntity
  8
0
  6
Continuous
 62
     7
370
    25
100
AcDbPolyline
 90
       11
 70
   128
 43
0.0
 10
377.4495647969
 20
81.3275794176
 10
377.4058632565
 20
81.2943595029
 10
377.3664396212
 20
81.2484047794
 10
377.3351529619
 20
81.1942134793
 10
377.3150652471
 20
81.1370915211
 10
377.3081436809
 20
81.0826302518
 10
377.3150652471
 20
81.0361628862
 10
377.3351529619
 20
81.0022337099
 10
377.3664396212
 20
80.9841652177
 10
377.4058632565
 20
80.9837280546
 10
377.4495647969
 20
81.0009648645
  0
LINE
  5
139
330
1F
100
AcDbEntity
  8
0
  6
Continuous
 62
     7
370
    25
100
AcDbLine
 10
377.4495647969
 20
81.0009648645
 30
0.0
 11
379.995149363
 21
82.4704995545
 31
0.0
  0
LWPOLYLINE
  5
13A
330
1F
100
AcDbEntity
  8
0
  6
Continuous
 62
     7
370
    25
100
AcDbPolyline
 90
       11
 70
   128
 43
0.0
 10
379.995149363
 20
82.4704995545
 10
380.0388509034
 20
82.5037194692
 10
380.078274802
 20
82.5496743448
 10
380.1095617248
 20
82.603865797
 10
380.1296491762
 20
82.6609876031
 10
380.1365707424
 20
82.715446439
 10
380.1296491762
 20
82.761916238
 10
380.1095617248
 20
82.7958455664
 10
380.078274802
 20
82.8139139065
 10
380.0388509034
 20
82.8143509176
 10
379.995149363
 20
82.7971141077
  0
LINE
  5
13B
330
1F
100
AcDbEntity
  8
0
  6
Continuous
 62
     7
370
    25
100
AcDbLine
 10
379.995149363
 20
82.7971141077
 30
0.0
 11
377.4495647969
 21
81.3275794176
 31
0.0
  0
LWPOLYLINE
  5
13C
330
1F
100
AcDbEntity
  8
0
  6
Continuous
 62
     7
370
    25
100
AcDbPolyline
 90
       11
 70
   128
 43
0.0
 10
381.3386523357
 20
83.5727018651
 10
381.2949506636
 20
83.5394818743
 10
381.2555268967
 20
83.4935270748
 10
381.2242399739
 20
83.4393356226
 10
381.2041526542
 20
83.3822138925
 10
381.1972309563
 20
83.3277525472
 10
381.2041526542
 20
83.2812852576
 10
381.2242399739
 20
83.2473558532
 10
381.2555268967
 20
83.2292875131
 10
381.2949506636
 20
83.228850426
 10
381.3386523357
 20
83.2460873119
  0
LINE
  5
13D
330
1F
100
AcDbEntity
  8
0
  6
Continuous
 62
     7
370
    25
100
AcDbLine
 10
381.3386523357
 20
83.2460873119
 30
0.0
 11
383.8842367701
 21
84.7156219259
 31
0.0
  0
LWPOLYLINE
  5
13E
330
1F
100
AcDbEntity
  8
0
  6
Continuous
 62
     7
370
    25
100
AcDbPolyline
 90
       11
 70
   128
 43
0.0
 10
383.8842367701
 20
84.7156219259
 10
383.9279383105
 20
84.7488418406
 10
383.9673620775
 20
84.7947966402
 10
383.9986490002
 20
84.8489880923
 10
384.0187364517
 20
84.9061098985
 10
384.0256580178
 20
84.9605687343
 10
384.0187364517
 20
85.0070385334
 10
383.9986490002
 20
85.0409678618
 10
383.9673620775
 20
85.0590362019
 10
383.9279383105
 20
85.0594732889
 10
383.8842367701
 20
85.0422364791
  0
LINE
  5
13F
330
1F
100
AcDbEntity
  8
0
  6
Continuous
 62
     7
370
    25
100
AcDbLine
 10
383.8842367701
 20
85.0422364791
 30
0.0
 11
381.3386523357
 21
83.5727018651
 31
0.0
  0
LWPOLYLINE
  5
140
330
1F
100
AcDbEntity
  8
0
  6
Continuous
 62
     7
370
    25
100
AcDbPolyline
 90
       11
 70
   128
 43
0.0
 10
385.2277396112
 20
85.8178241604
 10
385.1840380708
 20
85.7846042457
 10
385.1446141721
 20
85.7386493701
 10
385.1133272494
 20
85.6844579179
 10
385.093239798
 20
85.6273361118
 10
385.0863182318
 20
85.5728748425
 10
385.093239798
 20
85.5264074769
 10
385.1133272494
 20
85.4924781485
 10
385.1446141721
 20
85.4744098084
 10
385.1840380708
 20
85.4739727974
 10
385.2277396112
 20
85.4912096072
  0
LINE
  5
141
330
1F
100
AcDbEntity
  8
0
  6
Continuous
 62
     7
370
    25
100
AcDbLine
 10
385.2277396112
 20
85.4912096072
 30
0.0
 11
387.7733241773
 21
86.9607442973
 31
0.0
  0
LWPOLYLINE
  5
142
330
1F
100
AcDbEntity
  8
0
  6
Continuous
 62
     7
370
    25
100
AcDbPolyline
 90
       11
 70
   128
 43
0.0
 10
387.7733241773
 20
86.9607442973
 10
387.8170257177
 20
86.993964212
 10
387.8564493529
 20
87.0399189355
 10
387.8877365391
 20
87.0941105398
 10
387.9078237271
 20
87.1512321938
 10
387.9147452933
 20
87.2056910297
 10
387.9078237271
 20
87.2521608287
 10
387.8877365391
 20
87.2860903092
 10
387.8564493529
 20
87.3041584972
 10
387.8170257177
 20
87.3045956603
 10
387.7733241773
 20
87.2873588505
  0
LINE
  5
143
330
1F
100
AcDbEntity
  8
0
  6
Continuous
 62
     7
370
    25
100
AcDbLine
 10
387.7733241773
 20
87.2873588505
 30
0.0
 11
385.2277396112
 21
85.8178241604
 31
0.0
  0
LWPOLYLINE
  5
144
330
1F
100
AcDbEntity
  8
0
  6
Continuous
 62
     7
370
    25
100
AcDbPolyline
 90
       11
 70
   128
 43
0.0
 10
375.5050214226
 20
81.0215608887
 10
375.4613198822
 20
80.9883385405
 10
375.4218957201
 20
80.9423835129
 10
375.3906090608
 20
80.8881922128
 10
375.3705218728
 20
80.8310729922
 10
375.3635997797
 20
80.7766114187
 10
375.3705218728
 20
80.7301419238
 10
375.3906090608
 20
80.6962124433
 10
375.4218957201
 20
80.6781463846
 10
375.4613198822
 20
80.6777070922
 10
375.5050214226
 20
80.694943902
  0
LINE
  5
145
330
1F
100
AcDbEntity
  8
0
  6
Continuous
 62
     7
370
    25
100
AcDbLine
 10
375.5050214226
 20
80.694943902
 30
0.0
 11
378.0506057253
 21
82.16447844
 31
0.0
  0
LWPOLYLINE
  5
146
330
1F
100
AcDbEntity
  8
0
  6
Continuous
 62
     7
370
    25
100
AcDbPolyline
 90
       11
 70
   128
 43
0.0
 10
378.0506057253
 20
82.16447844
 10
378.0943072656
 20
82.1976983547
 10
378.1337309009
 20
82.2436555117
 10
378.1650180871
 20
82.2978446825
 10
378.1851052751
 20
82.3549663366
 10
378.1920273681
 20
82.40942791
 10
378.1851052751
 20
82.455897405
 10
378.1650180871
 20
82.4898244519
 10
378.1337309009
 20
82.50789264
 10
378.0943072656
 20
82.5083298031
 10
378.0506057253
 20
82.4910954267
  0
LINE
  5
147
330
1F
100
AcDbEntity
  8
0
  6
Continuous
 62
     7
370
    25
100
AcDbLine
 10
378.0506057253
 20
82.4910954267
 30
0.0
 11
375.5050214226
 21
81.0215608887
 31
0.0
  0
LWPOLYLINE
  5
148
330
1F
100
AcDbEntity
  8
0
  6
Continuous
 62
     7
370
    25
100
AcDbPolyline
 90
       11
 70
   128
 43
0.0
 10
379.394108698
 20
83.266683184
 10
379.3504071576
 20
83.2334608359
 10
379.310983259
 20
83.1875059603
 10
379.2796963362
 20
83.1333145081
 10
379.2596088848
 20
83.0761951355
 10
379.2526873186
 20
83.0217338661
 10
379.2596088848
 20
82.975264067
 10
379.2796963362
 20
82.9413347387
 10
379.310983259
 20
82.923268832
 10
379.3504071576
 20
82.9228293875
 10
379.394108698
 20
82.9400661974
  0
LINE
  5
149
330
1F
100
AcDbEntity
  8
0
  6
Continuous
 62
     7
370
    25
100
AcDbLine
 10
379.394108698
 20
82.9400661974
 30
0.0
 11
381.9396930666
 21
84.4096007734
 31
0.0
  0
LWPOLYLINE
  5
14A
330
1F
100
AcDbEntity
  8
0
  6
Continuous
 62
     7
370
    25
100
AcDbPolyline
 90
       11
 70
   128
 43
0.0
 10
381.9396930666
 20
84.4096007734
 10
381.9833946728
 20
84.4428207261
 10
382.0228184398
 20
84.4887779591
 10
382.0541053625
 20
84.5429669778
 10
382.0741927481
 20
84.600088746
 10
382.081114446
 20
84.6545500913
 10
382.0741927481
 20
84.7010198144
 10
382.0541053625
 20
84.7349467473
 10
382.0228184398
 20
84.7530150874
 10
381.9833946728
 20
84.7534521744
 10
381.9396930666
 20
84.7362177601
  0
LINE
  5
14B
330
1F
100
AcDbEntity
  8
0
  6
Continuous
 62
     7
370
    25
100
AcDbLine
 10
381.9396930666
 20
84.7362177601
 30
0.0
 11
379.394108698
 21
83.266683184
 31
0.0
  0
LINE
  5
14C
330
1F
100
AcDbEntity
  8
0
  6
Continuous
 62
     7
370
    25
100
AcDbLine
 10
390.1845580247
 20
90.443063219
 30
0.0
 11
374.2605134944
 21
81.250307985
 31
0.0
  0
LINE
  5
14D
330
1F
100
AcDbEntity
  8
0
  6
Continuous
 62
     7
370
    25
100
AcDbLine
 10
390.1916292122
 20
90.4389811094
 30
0.0
 11
390.1845580247
 21
90.443063219
 31
0.0
  0
LINE
  5
14E
330
1F
100
AcDbEntity
  8
0
  6
Continuous
 62
     7
370
    25
100
AcDbLine
 10
375.5721966502
 20
78.0473036089
 30
0.0
 11
375.077141875
 21
78.3330926474
 31
0.0
  0
LWPOLYLINE
  5
14F
330
1F
100
AcDbEntity
  8
0
  6
Continuous
 62
     7
370
    25
100
AcDbPolyline
 90
        3
 70
   128
 43
0.0
 10
374.5412631354
 20
78.0237367073
 10
374.5620320487
 20
78.0077251781
 10
374.6071207472
 20
77.9650452039
  0
ARC
  5
150
330
1F
100
AcDbEntity
  8
0
  6
Continuous
 62
     7
370
    25
100
AcDbCircle
 10
374.1116805632
 20
78.0226828671
 30
0.0
 40
0.2059213922310664
100
AcDbArc
 50
294.4385814849
 51
313.6519802195
  0
LINE
  5
151
330
1F
100
AcDbEntity
  8
0
  6
Continuous
 62
     7
370
    25
100
AcDbLine
 10
373.1001786179
 20
77.4990061437
 30
0.0
 11
373.0998108867
 21
77.5142050223
 31
0.0
  0
LINE
  5
152
330
1F
100
AcDbEntity
  8
0
  6
Continuous
 62
     7
370
    25
100
AcDbLine
 10
373.1001786179
 20
77.4217285131
 30
0.0
 11
373.0998108867
 21
77.4369273917
 31
0.0
  0
LWPOLYLINE
  5
153
330
1F
100
AcDbEntity
  8
0
  6
Continuous
 62
     7
370
    25
100
AcDbPolyline
 90
        8
 70
   128
 43
0.0
 10
374.457002629
 20
77.8137616974
 10
374.4564336466
 20
77.8012021087
 10
374.4428386537
 20
77.7516520127
 10
374.4116952937
 20
77.7048157198
 10
374.364363856
 20
77.6627412799
 10
374.3029137509
 20
77.6272668893
 10
374.2300313131
 20
77.5999433361
 10
374.1968738605
 20
77.5912252856
  0
LWPOLYLINE
  5
154
330
1F
100
AcDbEntity
  8
0
  6
Continuous
 62
     7
370
    25
100
AcDbPolyline
 90
        8
 70
   128
 43
0.0
 10
374.4541208382
 20
77.9734305933
 10
374.4564336466
 20
77.9326636329
 10
374.4428386537
 20
77.8831135369
 10
374.4116952937
 20
77.836277244
 10
374.364363856
 20
77.7942028041
 10
374.3029137509
 20
77.7587284135
 10
374.2300313131
 20
77.7314048603
 10
374.1968738605
 20
77.7226868098
  0
LWPOLYLINE
  5
155
330
1F
100
AcDbEntity
  8
0
  6
Continuous
 62
     7
370
    25
100
AcDbPolyline
 90
       10
 70
   128
 43
0.0
 10
386.8827528389
 20
84.8135455987
 10
386.9250587918
 20
84.8082068297
 10
387.0038670764
 20
84.8115588557
 10
387.0871113169
 20
84.8310237616
 10
387.1730534826
 20
84.8661895396
 10
387.2599018055
 20
84.9163260092
 10
387.3458439711
 20
84.9803869436
 10
387.4290882116
 20
85.057033792
 10
387.5078964963
 20
85.1446718746
 10
387.5502024491
 20
85.1988560571
  0
LWPOLYLINE
  5
156
330
1F
100
AcDbEntity
  8
0
  6
Continuous
 62
     7
370
    25
100
AcDbPolyline
 90
       16
 70
   128
 43
0.0
 10
386.656095517
 20
84.4709911099
 10
386.6639295624
 20
84.4681839626
 10
386.7525828241
 20
84.4472121155
 10
386.8482208722
 20
84.4433548951
 10
386.9494033383
 20
84.4566690149
 10
387.0546076674
 20
84.4869568974
 10
387.1622486111
 20
84.5337560257
 10
387.2707066769
 20
84.5963675343
 10
387.3783476207
 20
84.6738479943
 10
387.4835519497
 20
84.7650264447
 10
387.5847344158
 20
84.8685351136
 10
387.6803724639
 20
84.982813674
 10
387.7690257256
 20
85.1061423982
 10
387.8493597262
 20
85.2366607109
 10
387.9201637975
 20
85.3724091648
 10
387.9452079817
 20
85.4268878973
  0
ARC
  5
157
330
1F
100
AcDbEntity
  8
0
  6
Continuous
 62
     7
370
    25
100
AcDbCircle
 10
386.760412236
 20
85.6329065044
 30
0.0
 40
0.8010085998953493
100
AcDbArc
 50
284.2043863556
 51
315.7902371117
  0
LINE
  5
158
330
1F
100
AcDbEntity
  8
0
  6
Continuous
 62
     7
370
    25
100
AcDbLine
 10
372.9240817092
 20
154.0573123846
 30
0.0
 11
373.065503352
 21
153.9756714079
 31
0.0
  0
LINE
  5
159
330
1F
100
AcDbEntity
  8
0
  6
Continuous
 62
     7
370
    25
100
AcDbLine
 10
373.065503352
 20
153.9756714079
 30
0.0
 11
372.365611732
 21
153.5716325759
 31
0.0
  0
LINE
  5
15A
330
1F
100
AcDbEntity
  8
0
  6
Continuous
 62
     7
370
    25
100
AcDbLine
 10
372.365611732
 20
153.5716325759
 30
0.0
 11
372.2984370311
 21
153.6104117052
 31
0.0
  0
ARC
  5
15B
330
1F
100
AcDbEntity
  8
0
  6
Continuous
 62
     7
370
    25
100
AcDbCircle
 10
372.2913658436
 20
153.5967631882
 30
0.0
 40
0.0153715227393038
100
AcDbArc
 50
62.6116874877
 51
117.3883125125
  0
LINE
  5
15C
330
1F
100
AcDbEntity
  8
0
  6
Continuous
 62
     7
370
    25
100
AcDbLine
 10
372.2842946561
 20
153.6104117052
 30
0.0
 11
372.2796869519
 21
153.6077517342
 31
0.0
  0
ARC
  5
15D
330
1F
100
AcDbEntity
  8
0
  6
Continuous
 62
     7
370
    25
100
AcDbCircle
 10
372.2726613746
 20
153.6211068527
 30
0.0
 40
0.0150903256091336
100
AcDbArc
 50
238.8781790206
 51
297.7470080749
  0
ARC
  5
15E
330
1F
100
AcDbEntity
  8
0
  6
Continuous
 62
     7
370
    25
100
AcDbCircle
 10
372.2740211676
 20
153.6260957156
 30
0.0
 40
0.0201137611232755
100
AcDbArc
 50
134.072352316
 51
242.9107248603
  0
ARC
  5
15F
330
1F
100
AcDbEntity
  8
0
  6
Continuous
 62
     7
370
    25
100
AcDbCircle
 10
372.2821414883
 20
153.6121417457
 30
0.0
 40
0.0359962093083761
100
AcDbArc
 50
68.0182063984
 51
127.8976484649
  0
ARC
  5
160
330
1F
100
AcDbEntity
  8
0
  6
Continuous
 62
     7
370
    25
100
AcDbCircle
 10
372.3229042731
 20
153.7189109766
 30
0.0
 40
0.0782991520785177
100
AcDbArc
 50
249.6030621662
 51
297.0732811112
  0
LINE
  5
161
330
1F
100
AcDbEntity
  8
0
  6
Continuous
 62
     7
370
    25
100
AcDbLine
 10
372.3585405444
 20
153.6491914429
 30
0.0
 11
372.8887289326
 21
153.9552626844
 31
0.0
  0
ARC
  5
162
330
1F
100
AcDbEntity
  8
0
  6
Continuous
 62
     7
370
    25
100
AcDbCircle
 10
372.8806885317
 20
153.9755615921
 30
0.0
 40
0.0218333162146038
100
AcDbArc
 50
291.6085271981
 51
70.0241812888
  0
LINE
  5
163
330
1F
100
AcDbEntity
  8
0
  6
Continuous
 62
     7
370
    25
100
AcDbLine
 10
372.8881473061
 20
153.9960813479
 30
0.0
 11
372.4641436881
 21
154.2408534265
 31
0.0
  0
LINE
  5
164
330
1F
100
AcDbEntity
  8
0
  6
Continuous
 62
     7
370
    25
100
AcDbLine
 10
372.4997893852
 20
154.2614312495
 30
0.0
 11
372.5811412322
 21
154.2144678278
 31
0.0
  0
LINE
  5
165
330
1F
100
AcDbEntity
  8
0
  6
Continuous
 62
     7
370
    25
100
AcDbLine
 10
372.5811412322
 20
154.2144678278
 30
0.0
 11
372.5740805814
 21
154.2103918009
 31
0.0
  0
LINE
  5
166
330
1F
100
AcDbEntity
  8
0
  6
Continuous
 62
     7
370
    25
100
AcDbLine
 10
372.5740805814
 20
154.2103918009
 30
0.0
 11
372.6165013844
 21
154.1859027926
 31
0.0
  0
LINE
  5
167
330
1F
100
AcDbEntity
  8
0
  6
Continuous
 62
     7
370
    25
100
AcDbLine
 10
372.6165013844
 20
154.1859027926
 30
0.0
 11
372.676594361
 21
154.2205937296
 31
0.0
  0
LINE
  5
168
330
1F
100
AcDbEntity
  8
0
  6
Continuous
 62
     7
370
    25
100
AcDbLine
 10
372.676594361
 20
154.2205937296
 30
0.0
 11
372.7119502986
 21
154.2001831813
 31
0.0
  0
LINE
  5
169
330
1F
100
AcDbEntity
  8
0
  6
Continuous
 62
     7
370
    25
100
AcDbLine
 10
372.7119502986
 20
154.2001831813
 30
0.0
 11
372.6942728566
 21
154.1899782112
 31
0.0
  0
LWPOLYLINE
  5
16A
330
1F
100
AcDbEntity
  8
0
  6
Continuous
 62
     7
370
    25
100
AcDbPolyline
 90
        9
 70
   128
 43
0.0
 10
372.6942728566
 20
154.1899782112
 10
372.6900529034
 20
154.1855749343
 10
372.6872216889
 20
154.1808152102
 10
372.6858666677
 20
154.175844416
 10
372.6860268257
 20
154.1708127946
 10
372.6876979483
 20
154.1658736305
 10
372.6908294591
 20
154.1611777749
 10
372.6953275815
 20
154.1568669552
 10
372.7010532309
 20
154.1530725579
  0
LINE
  5
16B
330
1F
100
AcDbEntity
  8
0
  6
Continuous
 62
     7
370
    25
100
AcDbLine
 10
372.7010532309
 20
154.1530725579
 30
0.0
 11
372.7717640523
 21
154.1122520696
 31
0.0
  0
ARC
  5
16C
330
1F
100
AcDbEntity
  8
0
  6
Continuous
 62
     7
370
    25
100
AcDbCircle
 10
372.8080710051
 20
154.1812151698
 30
0.0
 40
0.0779365383328949
100
AcDbArc
 50
242.2345737232
 51
290.7580375461
  0
LINE
  5
16D
330
1F
100
AcDbEntity
  8
0
  6
Continuous
 62
     7
370
    25
100
AcDbLine
 10
372.8356934458
 20
154.1083378429
 30
0.0
 11
373.9140311017
 21
154.7308489211
 31
0.0
  0
LINE
  5
16E
330
1F
100
AcDbEntity
  8
0
  6
Continuous
 62
     7
370
    25
100
AcDbLine
 10
373.9140311017
 20
154.7308489211
 30
0.0
 11
373.9670644812
 21
154.7002334028
 31
0.0
  0
LINE
  5
16F
330
1F
100
AcDbEntity
  8
0
  6
Continuous
 62
     7
370
    25
100
AcDbLine
 10
373.9670644812
 20
154.7002334028
 30
0.0
 11
372.9240817092
 21
154.0981322646
 31
0.0
  0
ARC
  5
170
330
1F
100
AcDbEntity
  8
0
  6
Continuous
 62
     7
370
    25
100
AcDbCircle
 10
372.9318284483
 20
154.0777223246
 30
0.0
 40
0.0218306577800967
100
AcDbArc
 50
110.7846171051
 51
249.2153828949
  0
LINE
  5
171
330
1F
100
AcDbEntity
  8
0
  6
Continuous
 62
     7
370
    25
100
AcDbLine
 10
372.365611732
 20
80.0952067306
 30
0.0
 11
372.2984370311
 21
80.13398586
 31
0.0
  0
LINE
  5
172
330
1F
100
AcDbEntity
  8
0
  6
Continuous
 62
     7
370
    25
100
AcDbLine
 10
372.2984370311
 20
80.13398586
 30
0.0
 11
372.2984370311
 21
153.6104117052
 31
0.0
  0
LINE
  5
173
330
1F
100
AcDbEntity
  8
0
  6
Continuous
 62
     7
370
    25
100
AcDbLine
 10
372.365611732
 20
80.0952067306
 30
0.0
 11
372.365611732
 21
153.5716325759
 31
0.0
  0
LINE
  5
174
330
1F
100
AcDbEntity
  8
0
  6
Continuous
 62
     7
370
    25
100
AcDbLine
 10
373.065503352
 20
80.4992455627
 30
0.0
 11
372.365611732
 21
80.0952067306
 31
0.0
  0
LINE
  5
175
330
1F
100
AcDbEntity
  8
0
  6
Continuous
 62
     7
370
    25
100
AcDbLine
 10
373.065503352
 20
80.4992455627
 30
0.0
 11
373.065503352
 21
153.9756714079
 31
0.0
  0
ARC
  5
176
330
1F
100
AcDbEntity
  8
0
  6
Continuous
 62
     7
370
    25
100
AcDbCircle
 10
372.2726613746
 20
80.1446810074
 30
0.0
 40
0.0150903256092594
100
AcDbArc
 50
238.8781790209
 51
297.7470080747
  0
LINE
  5
177
330
1F
100
AcDbEntity
  8
0
  6
Continuous
 62
     7
370
    25
100
AcDbLine
 10
372.2648617979
 20
80.1317626278
 30
0.0
 11
372.2648617979
 21
153.6081884731
 31
0.0
  0
LINE
  5
178
330
1F
100
AcDbEntity
  8
0
  6
Continuous
 62
     7
370
    25
100
AcDbLine
 10
372.2796869519
 20
80.1313258889
 30
0.0
 11
372.2796869519
 21
153.6077517342
 31
0.0
  0
ARC
  5
179
330
1F
100
AcDbEntity
  8
0
  6
Continuous
 62
     7
370
    25
100
AcDbCircle
 10
372.2913658436
 20
80.1203373429
 30
0.0
 40
0.0153715227395309
100
AcDbArc
 50
62.6116874881
 51
117.3883125121
  0
LINE
  5
17A
330
1F
100
AcDbEntity
  8
0
  6
Continuous
 62
     7
370
    25
100
AcDbLine
 10
372.2842946561
 20
80.13398586
 30
0.0
 11
372.2842946561
 21
153.6104117052
 31
0.0
  0
LINE
  5
17B
330
1F
100
AcDbEntity
  8
0
  6
Continuous
 62
     7
370
    25
100
AcDbLine
 10
372.2842946561
 20
80.13398586
 30
0.0
 11
372.2796869519
 21
80.1313258889
 31
0.0
  0
ARC
  5
17C
330
1F
100
AcDbEntity
  8
0
  6
Continuous
 62
     7
370
    25
100
AcDbCircle
 10
372.2763318724
 20
80.1514038298
 30
0.0
 40
0.0227450966448158
100
AcDbArc
 50
183.5620272563
 51
239.7159144556
  0
LINE
  5
17D
330
1F
100
AcDbEntity
  8
0
  6
Continuous
 62
     7
370
    25
100
AcDbLine
 10
372.2565472784
 20
153.9323962821
 30
0.0
 11
372.2565472784
 21
154.1210081135
 31
0.0
  0
LINE
  5
17E
330
1F
100
AcDbEntity
  8
0
  6
Continuous
 62
     7
370
    25
100
AcDbLine
 10
373.9670644812
 20
81.2238075575
 30
0.0
 11
373.065503352
 21
80.703347396
 31
0.0
  0
LINE
  5
17F
330
1F
100
AcDbEntity
  8
0
  6
Continuous
 62
     7
370
    25
100
AcDbLine
 10
373.9670644812
 20
81.2238075575
 30
0.0
 11
373.9670644812
 21
154.7002334028
 31
0.0
  0
LINE
  5
180
330
1F
100
AcDbEntity
  8
0
  6
Continuous
 62
     7
370
    25
100
AcDbLine
 10
372.6942728566
 20
154.1577370181
 30
0.0
 11
372.6942728566
 21
154.1899782112
 31
0.0
  0
LINE
  5
181
330
1F
100
AcDbEntity
  8
0
  6
Continuous
 62
     7
370
    25
100
AcDbLine
 10
372.7119502986
 20
154.1467804352
 30
0.0
 11
372.7119502986
 21
154.2001831813
 31
0.0
  0
LINE
  5
182
330
1F
100
AcDbEntity
  8
0
  6
Continuous
 62
     7
370
    25
100
AcDbLine
 10
372.5811412322
 20
154.2063156656
 30
0.0
 11
372.5811412322
 21
154.2144678278
 31
0.0
  0
LINE
  5
183
330
1F
100
AcDbEntity
  8
0
  6
Continuous
 62
     8
370
    25
100
AcDbLine
 10
374.409713865
 20
162.0800498601
 30
0.0
 11
374.5511344541
 21
161.9984094918
 31
0.0
  0
LINE
  5
184
330
1F
100
AcDbEntity
  8
0
  6
Continuous
 62
     8
370
    25
100
AcDbLine
 10
376.8138301633
 20
163.6312521387
 30
0.0
 11
377.0967187568
 21
163.4679440298
 31
0.0
  0
LINE
  5
185
330
1F
100
AcDbEntity
  8
0
  6
Continuous
 62
     8
370
    25
100
AcDbLine
 10
374.409713865
 20
160.3244878154
 30
0.0
 11
374.5511344541
 21
160.2428474471
 31
0.0
  0
LINE
  5
186
330
1F
100
AcDbEntity
  8
0
  6
Continuous
 62
     8
370
    25
100
AcDbLine
 10
376.8138301633
 20
161.875690094
 30
0.0
 11
377.0967187568
 21
161.7123819851
 31
0.0
  0
LINE
  5
187
330
1F
100
AcDbEntity
  8
0
  6
Continuous
 62
     8
370
    25
100
AcDbLine
 10
374.409713865
 20
158.5689257707
 30
0.0
 11
374.5511344541
 21
158.4872854023
 31
0.0
  0
LINE
  5
188
330
1F
100
AcDbEntity
  8
0
  6
Continuous
 62
     8
370
    25
100
AcDbLine
 10
376.8138301633
 20
160.1201280493
 30
0.0
 11
377.0967187568
 21
159.9568199404
 31
0.0
  0
LINE
  5
189
330
1F
100
AcDbEntity
  8
0
  6
Continuous
 62
     8
370
    25
100
AcDbLine
 10
374.409713865
 20
156.8133612925
 30
0.0
 11
374.5511344541
 21
156.7317209241
 31
0.0
  0
LINE
  5
18A
330
1F
100
AcDbEntity
  8
0
  6
Continuous
 62
     8
370
    25
100
AcDbLine
 10
376.8138301633
 20
158.3645635711
 30
0.0
 11
377.0967187568
 21
158.2012554622
 31
0.0
  0
LINE
  5
18B
330
1F
100
AcDbEntity
  8
0
  6
Continuous
 62
     8
370
    25
100
AcDbLine
 10
385.4391653255
 20
168.4472166593
 30
0.0
 11
385.5805859146
 21
168.365576291
 31
0.0
  0
LINE
  5
18C
330
1F
100
AcDbEntity
  8
0
  6
Continuous
 62
     8
370
    25
100
AcDbLine
 10
385.8280274281
 20
168.835037454
 30
0.0
 11
386.1109160216
 21
168.6717293451
 31
0.0
  0
LINE
  5
18D
330
1F
100
AcDbEntity
  8
0
  6
Continuous
 62
     8
370
    25
100
AcDbLine
 10
386.8533788562
 20
169.2636247529
 30
0.0
 11
386.9947994454
 21
169.1819843845
 31
0.0
  0
LINE
  5
18E
330
1F
100
AcDbEntity
  8
0
  6
Continuous
 62
     8
370
    25
100
AcDbLine
 10
385.4391653255
 20
166.6916546146
 30
0.0
 11
385.5805859146
 21
166.6100142462
 31
0.0
  0
LINE
  5
18F
330
1F
100
AcDbEntity
  8
0
  6
Continuous
 62
     8
370
    25
100
AcDbLine
 10
389.257495418
 20
170.8148271836
 30
0.0
 11
389.5403840115
 21
170.6515190746
 31
0.0
  0
LINE
  5
190
330
1F
100
AcDbEntity
  8
0
  6
Continuous
 62
     8
370
    25
100
AcDbLine
 10
385.8280274281
 20
167.0794754093
 30
0.0
 11
386.1109160216
 21
166.9161673003
 31
0.0
  0
LINE
  5
191
330
1F
100
AcDbEntity
  8
0
  6
Continuous
 62
     8
370
    25
100
AcDbLine
 10
386.8533788562
 20
167.5080627082
 30
0.0
 11
386.9947994454
 21
167.4264223398
 31
0.0
  0
LINE
  5
192
330
1F
100
AcDbEntity
  8
0
  6
Continuous
 62
     8
370
    25
100
AcDbLine
 10
385.4391653255
 20
164.9360925699
 30
0.0
 11
385.5805859146
 21
164.8544522015
 31
0.0
  0
LINE
  5
193
330
1F
100
AcDbEntity
  8
0
  6
Continuous
 62
     8
370
    25
100
AcDbLine
 10
389.257495418
 20
169.0592651388
 30
0.0
 11
389.5403840115
 21
168.8959570299
 31
0.0
  0
LINE
  5
194
330
1F
100
AcDbEntity
  8
0
  6
Continuous
 62
     8
370
    25
100
AcDbLine
 10
385.8280274281
 20
165.3239133646
 30
0.0
 11
386.1109160216
 21
165.1606052556
 31
0.0
  0
LINE
  5
195
330
1F
100
AcDbEntity
  8
0
  6
Continuous
 62
     8
370
    25
100
AcDbLine
 10
386.8533788562
 20
165.7525006635
 30
0.0
 11
386.9947994454
 21
165.6708602951
 31
0.0
  0
LINE
  5
196
330
1F
100
AcDbEntity
  8
0
  6
Continuous
 62
     8
370
    25
100
AcDbLine
 10
385.4391653255
 20
163.1805280917
 30
0.0
 11
385.5805859146
 21
163.0988877233
 31
0.0
  0
LINE
  5
197
330
1F
100
AcDbEntity
  8
0
  6
Continuous
 62
     8
370
    25
100
AcDbLine
 10
389.257495418
 20
167.3037030941
 30
0.0
 11
389.5403840115
 21
167.1403949852
 31
0.0
  0
LINE
  5
198
330
1F
100
AcDbEntity
  8
0
  6
Continuous
 62
     8
370
    25
100
AcDbLine
 10
385.8280274281
 20
163.5683488864
 30
0.0
 11
386.1109160216
 21
163.4050407774
 31
0.0
  0
LINE
  5
199
330
1F
100
AcDbEntity
  8
0
  6
Continuous
 62
     8
370
    25
100
AcDbLine
 10
386.8533788562
 20
163.9969361853
 30
0.0
 11
386.9947994454
 21
163.9152958169
 31
0.0
  0
LINE
  5
19A
330
1F
100
AcDbEntity
  8
0
  6
Continuous
 62
     8
370
    25
100
AcDbLine
 10
389.257495418
 20
165.5481386159
 30
0.0
 11
389.5403840115
 21
165.384830507
 31
0.0
  0
LINE
  5
19B
330
1F
100
AcDbEntity
  8
0
  6
Continuous
 62
     8
370
    25
100
AcDbLine
 10
369.9719120272
 20
160.7548701849
 30
0.0
 11
339.5663199305
 21
178.307644881
 31
0.0
  0
LINE
  5
19C
330
1F
100
AcDbEntity
  8
0
  6
Continuous
 62
     8
370
    25
100
AcDbLine
 10
369.9719120272
 20
159.3259202599
 30
0.0
 11
339.5663199305
 21
176.878694956
 31
0.0
  0
LINE
  5
19D
330
1F
100
AcDbEntity
  8
0
  6
Continuous
 62
     8
370
    25
100
AcDbLine
 10
369.9719120272
 20
157.8969752018
 30
0.0
 11
339.5663199305
 21
175.449749898
 31
0.0
  0
LINE
  5
19E
330
1F
100
AcDbEntity
  8
0
  6
Continuous
 62
     8
370
    25
100
AcDbLine
 10
369.9719120272
 20
156.4680301438
 30
0.0
 11
339.5663199305
 21
174.0208048399
 31
0.0
  0
LINE
  5
19F
330
1F
100
AcDbEntity
  8
0
  6
Continuous
 62
     8
370
    25
100
AcDbLine
 10
369.9719120272
 20
155.0390826522
 30
0.0
 11
339.5663199305
 21
172.5918573484
 31
0.0
  0
LINE
  5
1A0
330
1F
100
AcDbEntity
  8
0
  6
Continuous
 62
     8
370
    25
100
AcDbLine
 10
375.3636008334
 20
80.7765842704
 30
0.0
 11
375.5050214226
 21
80.694943902
 31
0.0
  0
LINE
  5
1A1
330
1F
100
AcDbEntity
  8
0
  6
Continuous
 62
     8
370
    25
100
AcDbLine
 10
377.7677171317
 20
82.327786549
 30
0.0
 11
378.0506057253
 21
82.16447844
 31
0.0
  0
LWPOLYLINE
  5
1A2
330
1F
100
AcDbEntity
  8
0
  6
Continuous
 62
     8
370
    25
100
AcDbPolyline
 90
       29
 70
   128
 43
0.0
 10
374.7122576413
 20
77.9205098973
 10
374.7763608906
 20
77.8765622855
 10
374.8462951563
 20
77.8143945109
 10
374.9005613311
 20
77.747213363
 10
374.9381036364
 20
77.6763254089
 10
374.9581902976
 20
77.6031111208
 10
374.9604319831
 20
77.5289953743
 10
374.9447828582
 20
77.4554212935
 10
374.9115495413
 20
77.3838201412
 10
374.861377406
 20
77.3155863796
 10
374.7952442592
 20
77.252047257
 10
374.7144355797
 20
77.1944399975
 10
374.620526606
 20
77.1438856454
 10
374.5153422967
 20
77.1013683839
 10
374.4009330959
 20
77.0677154622
 10
374.2795233036
 20
77.0435819885
 10
374.1534768311
 20
77.0294384609
 10
374.0252482055
 20
77.0255582974
 10
373.8973309398
 20
77.0320196608
 10
373.7722169663
 20
77.0486942059
 10
373.6523407924
 20
77.0752586363
 10
373.5400352462
 20
77.1111959215
 10
373.4374856418
 20
77.1558065492
 10
373.3466897397
 20
77.2082219078
 10
373.2694134929
 20
77.2674225343
 10
373.207161544
 20
77.3322551461
 10
373.1611445611
 20
77.4014587966
 10
373.1322602722
 20
77.473685556
 10
373.1254003458
 20
77.5044905509
  0
LWPOLYLINE
  5
1A3
330
1F
100
AcDbEntity
  8
0
  6
Continuous
 62
     8
370
    25
100
AcDbPolyline
 90
       13
 70
   128
 43
0.0
 10
374.6071207472
 20
77.9650452039
 10
374.6167823854
 20
77.9538648707
 10
374.6549779669
 20
77.8954367489
 10
374.6755187603
 20
77.8341232915
 10
374.6778152367
 20
77.7716875733
 10
374.6617994343
 20
77.709926124
 10
374.6279349683
 20
77.6506150962
 10
374.5771933237
 20
77.5954612996
 10
374.5110354156
 20
77.5460514102
 10
374.4313647011
 20
77.5038066543
 10
374.3404723881
 20
77.4699426623
 10
374.2409742154
 20
77.4454329728
 10
374.1968743873
 20
77.4380464285
  0
LWPOLYLINE
  5
1A4
330
1F
100
AcDbEntity
  8
0
  6
Continuous
 62
     8
370
    25
100
AcDbPolyline
 90
       25
 70
   128
 43
0.0
 10
374.9827735006
 20
77.5093884249
 10
374.9822614164
 20
77.4956487895
 10
374.9691205559
 20
77.4218560352
 10
374.9386968533
 20
77.3497831683
 10
374.8915556032
 20
77.2807735565
 10
374.8285760943
 20
77.2161121731
 10
374.7509310627
 20
77.1570040038
 10
374.6600677256
 20
77.1045497159
 10
374.5576782792
 20
77.0597261932
 10
374.4456693414
 20
77.0233688966
 10
374.326128235
 20
76.9961548322
 10
374.2012808404
 20
76.9785916025
 10
374.0734541903
 20
76.9710055452
 10
373.9450285282
 20
76.9735383875
 10
373.8183972682
 20
76.9861423801
 10
373.6959174728
 20
77.0085833385
 10
373.5798719206
 20
77.040443076
 10
373.4724216913
 20
77.0811285281
 10
373.3755692871
 20
77.129880876
 10
373.2911185931
 20
77.1857925789
 10
373.2206427404
 20
77.2478216676
 10
373.1654530227
 20
77.3148139472
 10
373.1265809844
 20
77.3855194198
 10
373.1047468095
 20
77.4586226984
 10
373.1001786179
 20
77.4990061437
  0
LWPOLYLINE
  5
1A5
330
1F
100
AcDbEntity
  8
0
  6
Continuous
 62
     8
370
    25
100
AcDbPolyline
 90
       25
 70
   128
 43
0.0
 10
374.9828103791
 20
77.4369276958
 10
374.9822614164
 20
77.4183711589
 10
374.9691205559
 20
77.3445784045
 10
374.9386968533
 20
77.2725055377
 10
374.8915556032
 20
77.2034959259
 10
374.8285760943
 20
77.1388345425
 10
374.7509310627
 20
77.0797263732
 10
374.6600677256
 20
77.0272720852
 10
374.5576782792
 20
76.9824485626
 10
374.4456693414
 20
76.946091266
 10
374.326128235
 20
76.9188772016
 10
374.2012808404
 20
76.9013139719
 10
374.0734541903
 20
76.8937279146
 10
373.9450285282
 20
76.8962607569
 10
373.8183972682
 20
76.9088647495
 10
373.6959174728
 20
76.9313057078
 10
373.5798719206
 20
76.9631654454
 10
373.4724216913
 20
77.0038508974
 10
373.3755692871
 20
77.0526032454
 10
373.2911185931
 20
77.1085149482
 10
373.2206427404
 20
77.170544037
 10
373.1654530227
 20
77.2375363166
 10
373.1265809844
 20
77.3082417892
 10
373.1047468095
 20
77.3813450678
 10
373.1001786179
 20
77.4217285131
  0
LWPOLYLINE
  5
1A6
330
1F
100
AcDbEntity
  8
0
  6
Continuous
 62
     8
370
    25
100
AcDbPolyline
 90
       13
 70
   128
 43
0.0
 10
374.5166562247
 20
78.0095320368
 10
374.519625997
 20
78.0071065544
 10
374.5705172629
 20
77.9562203902
 10
374.6053284525
 20
77.9010063747
 10
374.6230032602
 20
77.8431405999
 10
374.6230032602
 20
77.784382795
 10
374.6053295061
 20
77.7265170201
 10
374.5705172629
 20
77.6713023964
 10
374.5196249434
 20
77.6204168405
 10
374.4542009173
 20
77.5754050578
 10
374.3762297743
 20
77.5376365714
 10
374.2880838554
 20
77.5082570607
 10
374.1968738605
 20
77.4888580678
  0
LINE
  5
1A7
330
1F
100
AcDbEntity
  8
0
  6
Continuous
 62
     8
370
    25
100
AcDbLine
 10
377.3081442077
 20
81.0826052328
 30
0.0
 11
377.4495647969
 21
81.0009648645
 31
0.0
  0
LINE
  5
1A8
330
1F
100
AcDbEntity
  8
0
  6
Continuous
 62
     8
370
    25
100
AcDbLine
 10
379.7122607694
 20
82.6338076635
 30
0.0
 11
379.995149363
 21
82.4704995545
 31
0.0
  0
LINE
  5
1A9
330
1F
100
AcDbEntity
  8
0
  6
Continuous
 62
     8
370
    25
100
AcDbLine
 10
379.2526881089
 20
83.0217065657
 30
0.0
 11
379.394108698
 21
82.9400661974
 31
0.0
  0
LINE
  5
1AA
330
1F
100
AcDbEntity
  8
0
  6
Continuous
 62
     8
370
    25
100
AcDbLine
 10
381.656804473
 20
84.5729088823
 30
0.0
 11
381.9396930666
 21
84.4096007734
 31
0.0
  0
LINE
  5
1AB
330
1F
100
AcDbEntity
  8
0
  6
Continuous
 62
     8
370
    25
100
AcDbLine
 10
381.1972317466
 20
83.3277276802
 30
0.0
 11
381.3386523357
 21
83.2460873119
 31
0.0
  0
LINE
  5
1AC
330
1F
100
AcDbEntity
  8
0
  6
Continuous
 62
     8
370
    25
100
AcDbLine
 10
383.6013481766
 20
84.8789300349
 30
0.0
 11
383.8842367701
 21
84.7156219259
 31
0.0
  0
LINE
  5
1AD
330
1F
100
AcDbEntity
  8
0
  6
Continuous
 62
     8
370
    25
100
AcDbLine
 10
383.1417753514
 20
85.2668288421
 30
0.0
 11
383.2831959405
 21
85.1851884737
 31
0.0
  0
LINE
  5
1AE
330
1F
100
AcDbEntity
  8
0
  6
Continuous
 62
     8
370
    25
100
AcDbLine
 10
385.5458916826
 20
86.8180311397
 30
0.0
 11
385.8287802762
 21
86.6547230307
 31
0.0
  0
LINE
  5
1AF
330
1F
100
AcDbEntity
  8
0
  6
Continuous
 62
     8
370
    25
100
AcDbLine
 10
385.086319022
 20
85.5728499756
 30
0.0
 11
385.2277396112
 21
85.4912096072
 31
0.0
  0
LINE
  5
1B0
330
1F
100
AcDbEntity
  8
0
  6
Continuous
 62
     8
370
    25
100
AcDbLine
 10
387.4904355838
 20
87.1240524062
 30
0.0
 11
387.7733241773
 21
86.9607442973
 31
0.0
  0
LINE
  5
1B1
330
1F
100
AcDbEntity
  8
0
  6
Continuous
 62
     8
370
    25
100
AcDbLine
 10
372.8881473061
 20
153.954926313
 30
0.0
 11
372.8881473061
 21
153.9960813479
 31
0.0
  0
LINE
  5
1B2
330
1F
100
AcDbEntity
  8
0
  6
Continuous
 62
     8
370
    25
100
AcDbLine
 10
372.9240817092
 20
154.0573106166
 30
0.0
 11
372.9240817092
 21
154.0981322646
 31
0.0
  0
LINE
  5
1B3
330
1F
100
AcDbEntity
  8
0
  6
Continuous
 62
     7
370
    25
100
AcDbLine
 10
112.3499996662
 20
262.3400001621
 30
0.0
 11
112.3499996662
 21
212.5400005674
 31
0.0
  0
LINE
  5
1B4
330
1F
100
AcDbEntity
  8
0
  6
Continuous
 62
     7
370
    25
100
AcDbLine
 10
113.8499997258
 20
212.5400005674
 30
0.0
 11
113.8499997258
 21
262.3400001621
 31
0.0
  0
LINE
  5
1B5
330
1F
100
AcDbEntity
  8
0
  6
Continuous
 62
     7
370
    25
100
AcDbLine
 10
113.9749996066
 20
205.3900002337
 30
0.0
 11
75.0250003934
 21
205.3900002337
 31
0.0
  0
LINE
  5
1B6
330
1F
100
AcDbEntity
  8
0
  6
Continuous
 62
     7
370
    25
100
AcDbLine
 10
75.0250003934
 20
203.890000174
 30
0.0
 11
113.9749996066
 21
203.890000174
 31
0.0
  0
LINE
  5
1B7
330
1F
100
AcDbEntity
  8
0
  6
Continuous
 62
     7
370
    25
100
AcDbLine
 10
116.0250000358
 20
280.2546470261
 30
0.0
 11
72.9749999642
 21
280.2546470261
 31
0.0
  0
LINE
  5
1B8
330
1F
100
AcDbEntity
  8
0
  6
Continuous
 62
     7
370
    25
100
AcDbLine
 10
116.0250000358
 20
275.0046460724
 30
0.0
 11
72.9749999642
 21
275.0046460724
 31
0.0
  0
LINE
  5
1B9
330
1F
100
AcDbEntity
  8
0
  6
Continuous
 62
     7
370
    25
100
AcDbLine
 10
116.0250000358
 20
282.0046453571
 30
0.0
 11
72.9749999642
 21
282.0046453571
 31
0.0
  0
LINE
  5
1BA
330
1F
100
AcDbEntity
  8
0
  6
Continuous
 62
     7
370
    25
100
AcDbLine
 10
116.0250000358
 20
276.7546444035
 30
0.0
 11
72.9749999642
 21
276.7546444035
 31
0.0
  0
LINE
  5
1BB
330
1F
100
AcDbEntity
  8
0
  6
Continuous
 62
     7
370
    25
100
AcDbLine
 10
116.0250000358
 20
278.5046427345
 30
0.0
 11
72.9749999642
 21
278.5046427345
 31
0.0
  0
ARC
  5
1BC
330
1F
100
AcDbEntity
  8
0
  6
Continuous
 62
     7
370
    25
100
AcDbCircle
 10
74.3915
 20
176.565
 30
0.0
 40
0.0750000000000171
100
AcDbArc
 50
270.0
 51
0.0
  0
ARC
  5
1BD
330
1F
100
AcDbEntity
  8
0
  6
Continuous
 62
     7
370
    25
100
AcDbCircle
 10
72.6585
 20
176.565
 30
0.0
 40
0.0750000000000171
100
AcDbArc
 50
180.0
 51
270.0
  0
ARC
  5
1BE
330
1F
100
AcDbEntity
  8
0
  6
Continuous
 62
     7
370
    25
100
AcDbCircle
 10
116.3415
 20
176.565
 30
0.0
 40
0.0750000000000171
100
AcDbArc
 50
270.0
 51
0.0
  0
ARC
  5
1BF
330
1F
100
AcDbEntity
  8
0
  6
Continuous
 62
     7
370
    25
100
AcDbCircle
 10
114.6085
 20
176.565
 30
0.0
 40
0.0750000000000171
100
AcDbArc
 50
180.0
 51
270.0
  0
LINE
  5
1C0
330
1F
100
AcDbEntity
  8
0
  6
Continuous
 62
     7
370
    25
100
AcDbLine
 10
74.4665004015
 20
176.5650003052
 30
0.0
 11
74.4665004015
 21
176.6596405602
 31
0.0
  0
LINE
  5
1C1
330
1F
100
AcDbEntity
  8
0
  6
Continuous
 62
     7
370
    25
100
AcDbLine
 10
72.5835002661
 20
176.6596405602
 30
0.0
 11
72.5835002661
 21
176.5650003052
 31
0.0
  0
LINE
  5
1C2
330
1F
100
AcDbEntity
  8
0
  6
Continuous
 62
     7
370
    25
100
AcDbLine
 10
116.4164997339
 20
176.5650003052
 30
0.0
 11
116.4164997339
 21
176.6596405602
 31
0.0
  0
LINE
  5
1C3
330
1F
100
AcDbEntity
  8
0
  6
Continuous
 62
     7
370
    25
100
AcDbLine
 10
114.5334995985
 20
176.6596405602
 30
0.0
 11
114.5334995985
 21
176.5650003052
 31
0.0
  0
ARC
  5
1C4
330
1F
100
AcDbEntity
  8
0
  6
Continuous
 62
     7
370
    25
100
AcDbCircle
 10
116.3415
 20
176.6596408368
 30
0.0
 40
0.0750000000000029
100
AcDbArc
 50
0.0
 51
44.0751062253
  0
ARC
  5
1C5
330
1F
100
AcDbEntity
  8
0
  6
Continuous
 62
     7
370
    25
100
AcDbCircle
 10
114.6085
 20
176.6596408368
 30
0.0
 40
0.0750000000000171
100
AcDbArc
 50
135.9248937747
 51
180.0
  0
ARC
  5
1C6
330
1F
100
AcDbEntity
  8
0
  6
Continuous
 62
     7
370
    25
100
AcDbCircle
 10
74.3915
 20
176.6596408368
 30
0.0
 40
0.0750000000000171
100
AcDbArc
 50
0.0
 51
44.0751062253
  0
ARC
  5
1C7
330
1F
100
AcDbEntity
  8
0
  6
Continuous
 62
     7
370
    25
100
AcDbCircle
 10
72.6585
 20
176.6596408368
 30
0.0
 40
0.0750000000000029
100
AcDbArc
 50
135.9248937747
 51
180.0
  0
LINE
  5
1C8
330
1F
100
AcDbEntity
  8
0
  6
Continuous
 62
     7
370
    25
100
AcDbLine
 10
74.4453824759
 20
176.7118095255
 30
0.0
 11
74.162796855
 21
177.0036696291
 31
0.0
  0
LINE
  5
1C9
330
1F
100
AcDbEntity
  8
0
  6
Continuous
 62
     7
370
    25
100
AcDbLine
 10
72.8872038126
 20
177.0036696291
 30
0.0
 11
72.6046181917
 21
176.7118095255
 31
0.0
  0
LINE
  5
1CA
330
1F
100
AcDbEntity
  8
0
  6
Continuous
 62
     7
370
    25
100
AcDbLine
 10
116.3953818083
 20
176.7118095255
 30
0.0
 11
116.1127961874
 21
177.0036696291
 31
0.0
  0
LINE
  5
1CB
330
1F
100
AcDbEntity
  8
0
  6
Continuous
 62
     7
370
    25
100
AcDbLine
 10
114.837203145
 20
177.0036696291
 30
0.0
 11
114.5546175241
 21
176.7118095255
 31
0.0
  0
ARC
  5
1CC
330
1F
100
AcDbEntity
  8
0
  6
Continuous
 62
     7
370
    25
100
AcDbCircle
 10
116.0589145804
 20
176.9515
 30
0.0
 40
0.0750000000000171
100
AcDbArc
 50
44.0751062253
 51
90.0
  0
ARC
  5
1CD
330
1F
100
AcDbEntity
  8
0
  6
Continuous
 62
     7
370
    25
100
AcDbCircle
 10
114.8910854196
 20
176.9515
 30
0.0
 40
0.0750000000000171
100
AcDbArc
 50
90.0
 51
135.9248937747
  0
ARC
  5
1CE
330
1F
100
AcDbEntity
  8
0
  6
Continuous
 62
     7
370
    25
100
AcDbCircle
 10
74.1089145804
 20
176.9515
 30
0.0
 40
0.0750000000000171
100
AcDbArc
 50
44.0751062253
 51
90.0
  0
ARC
  5
1CF
330
1F
100
AcDbEntity
  8
0
  6
Continuous
 62
     7
370
    25
100
AcDbCircle
 10
72.9410854196
 20
176.9515
 30
0.0
 40
0.0750000000000171
100
AcDbArc
 50
90.0
 51
135.9248937747
  0
LINE
  5
1D0
330
1F
100
AcDbEntity
  8
0
  6
Continuous
 62
     7
370
    25
100
AcDbLine
 10
73.9406920671
 20
177.0265011883
 30
0.0
 11
73.9406920671
 21
177.1874992943
 31
0.0
  0
LINE
  5
1D1
330
1F
100
AcDbEntity
  8
0
  6
Continuous
 62
     7
370
    25
100
AcDbLine
 10
73.1093071103
 20
177.1874992943
 30
0.0
 11
73.1093071103
 21
177.0265011883
 31
0.0
  0
LINE
  5
1D2
330
1F
100
AcDbEntity
  8
0
  6
Continuous
 62
     7
370
    25
100
AcDbLine
 10
115.8906928897
 20
177.0265011883
 30
0.0
 11
115.8906928897
 21
177.1874992943
 31
0.0
  0
LINE
  5
1D3
330
1F
100
AcDbEntity
  8
0
  6
Continuous
 62
     7
370
    25
100
AcDbLine
 10
115.0593079329
 20
177.1874992943
 30
0.0
 11
115.0593079329
 21
177.0265011883
 31
0.0
  0
LINE
  5
1D4
330
1F
100
AcDbEntity
  8
0
  6
Continuous
 62
     7
370
    25
100
AcDbLine
 10
115.7209999561
 20
177.1874992943
 30
0.0
 11
115.7209999561
 21
177.2549985743
 31
0.0
  0
LINE
  5
1D5
330
1F
100
AcDbEntity
  8
0
  6
Continuous
 62
     7
370
    25
100
AcDbLine
 10
115.2289993763
 20
177.2549985743
 30
0.0
 11
115.2289993763
 21
177.1874992943
 31
0.0
  0
LINE
  5
1D6
330
1F
100
AcDbEntity
  8
0
  6
Continuous
 62
     7
370
    25
100
AcDbLine
 10
73.7710006237
 20
177.1874992943
 30
0.0
 11
73.7710006237
 21
177.2549985743
 31
0.0
  0
LINE
  5
1D7
330
1F
100
AcDbEntity
  8
0
  6
Continuous
 62
     7
370
    25
100
AcDbLine
 10
73.2790000439
 20
177.2549985743
 30
0.0
 11
73.2790000439
 21
177.1874992943
 31
0.0
  0
LINE
  5
1D8
330
1F
100
AcDbEntity
  8
0
  6
Continuous
 62
     7
370
    25
100
AcDbLine
 10
72.1850000024
 20
182.5049995279
 30
0.0
 11
72.1850000024
 21
272.4900006151
 31
0.0
  0
LINE
  5
1D9
330
1F
100
AcDbEntity
  8
0
  6
Continuous
 62
     7
370
    25
100
AcDbLine
 10
73.0825222731
 20
207.1400000548
 30
0.0
 11
73.0825222731
 21
207.5399993753
 31
0.0
  0
LINE
  5
1DA
330
1F
100
AcDbEntity
  8
0
  6
Continuous
 62
     7
370
    25
100
AcDbLine
 10
73.0825222731
 20
272.3399995661
 30
0.0
 11
73.0825222731
 21
272.4900006151
 31
0.0
  0
LINE
  5
1DB
330
1F
100
AcDbEntity
  8
0
  6
Continuous
 62
     7
370
    25
100
AcDbLine
 10
116.8149999976
 20
272.4900006151
 30
0.0
 11
116.8149999976
 21
182.5049995279
 31
0.0
  0
LINE
  5
1DC
330
1F
100
AcDbEntity
  8
0
  6
Continuous
 62
     7
370
    25
100
AcDbLine
 10
115.9174777269
 20
272.4900006151
 30
0.0
 11
115.9174777269
 21
272.3399995661
 31
0.0
  0
LINE
  5
1DD
330
1F
100
AcDbEntity
  8
0
  6
Continuous
 62
     7
370
    25
100
AcDbLine
 10
115.9174777269
 20
207.5399993753
 30
0.0
 11
115.9174777269
 21
207.1400000548
 31
0.0
  0
LINE
  5
1DE
330
1F
100
AcDbEntity
  8
0
  6
Continuous
 62
     7
370
    25
100
AcDbLine
 10
116.6499994397
 20
282.4900000191
 30
0.0
 11
116.4750002027
 21
282.4900000191
 31
0.0
  0
LINE
  5
1DF
330
1F
100
AcDbEntity
  8
0
  6
Continuous
 62
     7
370
    25
100
AcDbLine
 10
72.5249997973
 20
282.4900000191
 30
0.0
 11
72.3500005603
 21
282.4900000191
 31
0.0
  0
LINE
  5
1E0
330
1F
100
AcDbEntity
  8
0
  6
Continuous
 62
     7
370
    25
100
AcDbLine
 10
116.6499994397
 20
282.4900000191
 30
0.0
 11
116.6499994397
 21
272.7400003767
 31
0.0
  0
LINE
  5
1E1
330
1F
100
AcDbEntity
  8
0
  6
Continuous
 62
     7
370
    25
100
AcDbLine
 10
72.3500005603
 20
282.4900000191
 30
0.0
 11
72.3500005603
 21
272.7400003767
 31
0.0
  0
LINE
  5
1E2
330
1F
100
AcDbEntity
  8
0
  6
Continuous
 62
     7
370
    25
100
AcDbLine
 10
116.6499994397
 20
272.7400003767
 30
0.0
 11
116.4750002027
 21
272.7400003767
 31
0.0
  0
LINE
  5
1E3
330
1F
100
AcDbEntity
  8
0
  6
Continuous
 62
     7
370
    25
100
AcDbLine
 10
72.5249997973
 20
272.7400003767
 30
0.0
 11
72.3500005603
 21
272.7400003767
 31
0.0
  0
LINE
  5
1E4
330
1F
100
AcDbEntity
  8
0
  6
Continuous
 62
     7
370
    25
100
AcDbLine
 10
112.3499996662
 20
212.5400005674
 30
0.0
 11
113.8499997258
 21
212.5400005674
 31
0.0
  0
LINE
  5
1E5
330
1F
100
AcDbEntity
  8
0
  6
Continuous
 62
     7
370
    25
100
AcDbLine
 10
113.1000004411
 20
262.3400001621
 30
0.0
 11
113.8499997258
 21
262.3400001621
 31
0.0
  0
LINE
  5
1E6
330
1F
100
AcDbEntity
  8
0
  6
Continuous
 62
     7
370
    25
100
AcDbLine
 10
112.3499996662
 20
262.3400001621
 30
0.0
 11
113.1000004411
 21
262.3400001621
 31
0.0
  0
LINE
  5
1E7
330
1F
100
AcDbEntity
  8
0
  6
Continuous
 62
     7
370
    25
100
AcDbLine
 10
116.4750002027
 20
207.5399993753
 30
0.0
 11
72.5249997973
 21
207.5399993753
 31
0.0
  0
LINE
  5
1E8
330
1F
100
AcDbEntity
  8
0
  6
Continuous
 62
     7
370
    25
100
AcDbLine
 10
116.4750002027
 20
272.3399995661
 30
0.0
 11
116.4750002027
 21
207.5399993753
 31
0.0
  0
LINE
  5
1E9
330
1F
100
AcDbEntity
  8
0
  6
Continuous
 62
     7
370
    25
100
AcDbLine
 10
72.5249997973
 20
207.5399993753
 30
0.0
 11
72.5249997973
 21
272.3399995661
 31
0.0
  0
LINE
  5
1EA
330
1F
100
AcDbEntity
  8
0
  6
Continuous
 62
     7
370
    25
100
AcDbLine
 10
72.5249997973
 20
272.3399995661
 30
0.0
 11
116.4750002027
 21
272.3399995661
 31
0.0
  0
LINE
  5
1EB
330
1F
100
AcDbEntity
  8
0
  6
Continuous
 62
     7
370
    25
100
AcDbLine
 10
75.0250003934
 20
205.3900002337
 30
0.0
 11
75.0250003934
 21
203.890000174
 31
0.0
  0
LINE
  5
1EC
330
1F
100
AcDbEntity
  8
0
  6
Continuous
 62
     7
370
    25
100
AcDbLine
 10
113.9749996066
 20
204.6399994588
 30
0.0
 11
113.9749996066
 21
203.890000174
 31
0.0
  0
LINE
  5
1ED
330
1F
100
AcDbEntity
  8
0
  6
Continuous
 62
     7
370
    25
100
AcDbLine
 10
113.9749996066
 20
205.3900002337
 30
0.0
 11
113.9749996066
 21
204.6399994588
 31
0.0
  0
LINE
  5
1EE
330
1F
100
AcDbEntity
  8
0
  6
Continuous
 62
     7
370
    25
100
AcDbLine
 10
72.5249997973
 20
207.1400000548
 30
0.0
 11
116.4750002027
 21
207.1400000548
 31
0.0
  0
LINE
  5
1EF
330
1F
100
AcDbEntity
  8
0
  6
Continuous
 62
     7
370
    25
100
AcDbLine
 10
116.4750002027
 20
207.1400000548
 30
0.0
 11
116.4750002027
 21
181.3399999237
 31
0.0
  0
LINE
  5
1F0
330
1F
100
AcDbEntity
  8
0
  6
Continuous
 62
     7
370
    25
100
AcDbLine
 10
116.4750002027
 20
181.3399999237
 30
0.0
 11
72.5249997973
 21
181.3399999237
 31
0.0
  0
LINE
  5
1F1
330
1F
100
AcDbEntity
  8
0
  6
Continuous
 62
     7
370
    25
100
AcDbLine
 10
72.5249997973
 20
181.3399999237
 30
0.0
 11
72.5249997973
 21
207.1400000548
 31
0.0
  0
LWPOLYLINE
  5
1F2
330
1F
100
AcDbEntity
  8
0
  6
Continuous
 62
     7
370
    25
100
AcDbPolyline
 90
        3
 70
   128
 43
0.0
 10
87.6999996305
 20
181.3050000763
 10
87.6381963193
 20
181.3147901392
 10
87.5869735777
 20
181.3399999237
  0
LWPOLYLINE
  5
1F3
330
1F
100
AcDbEntity
  8
0
  6
Continuous
 62
     7
370
    25
100
AcDbPolyline
 90
        3
 70
   128
 43
0.0
 10
86.4130265713
 20
181.3399999237
 10
86.3618030846
 20
181.3147901392
 10
86.2999997735
 20
181.3050000763
  0
LINE
  5
1F4
330
1F
100
AcDbEntity
  8
0
  6
Continuous
 62
     7
370
    25
100
AcDbLine
 10
116.6000000834
 20
177.2549985743
 30
0.0
 11
72.3999999166
 21
177.2549985743
 31
0.0
  0
LWPOLYLINE
  5
1F5
330
1F
100
AcDbEntity
  8
0
  6
Continuous
 62
     7
370
    25
100
AcDbPolyline
 90
        3
 70
   128
 43
0.0
 10
91.4130264595
 20
181.3399999237
 10
91.3618035316
 20
181.3147901392
 10
91.299999848
 20
181.3050000763
  0
LINE
  5
1F6
330
1F
100
AcDbEntity
  8
0
  6
Continuous
 62
     7
370
    25
100
AcDbLine
 10
72.3999999166
 20
177.2549985743
 30
0.0
 11
72.3999999166
 21
182.2549997663
 31
0.0
  0
LINE
  5
1F7
330
1F
100
AcDbEntity
  8
0
  6
Continuous
 62
     7
370
    25
100
AcDbLine
 10
101.3000003695
 20
181.3050000763
 30
0.0
 11
97.700000152
 21
181.3050000763
 31
0.0
  0
LINE
  5
1F8
330
1F
100
AcDbEntity
  8
0
  6
Continuous
 62
     7
370
    25
100
AcDbLine
 10
86.2999997735
 20
181.3050000763
 30
0.0
 11
82.6999999285
 21
181.3050000763
 31
0.0
  0
LWPOLYLINE
  5
1F9
330
1F
100
AcDbEntity
  8
0
  6
Continuous
 62
     7
370
    25
100
AcDbPolyline
 90
        3
 70
   128
 43
0.0
 10
82.6999999285
 20
181.3050000763
 10
82.6381966174
 20
181.3147901392
 10
82.5869731307
 20
181.3399999237
  0
LINE
  5
1FA
330
1F
100
AcDbEntity
  8
0
  6
Continuous
 62
     7
370
    25
100
AcDbLine
 10
91.299999848
 20
181.3050000763
 30
0.0
 11
87.6999996305
 21
181.3050000763
 31
0.0
  0
LINE
  5
1FB
330
1F
100
AcDbEntity
  8
0
  6
Continuous
 62
     7
370
    25
100
AcDbLine
 10
96.2999999225
 20
181.3050000763
 30
0.0
 11
92.7000000775
 21
181.3050000763
 31
0.0
  0
LWPOLYLINE
  5
1FC
330
1F
100
AcDbEntity
  8
0
  6
Continuous
 62
     7
370
    25
100
AcDbPolyline
 90
        3
 70
   128
 43
0.0
 10
106.4130268693
 20
181.3399999237
 10
106.3618033826
 20
181.3147901392
 10
106.3000000715
 20
181.3050000763
  0
LWPOLYLINE
  5
1FD
330
1F
100
AcDbEntity
  8
0
  6
Continuous
 62
     7
370
    25
100
AcDbPolyline
 90
        3
 70
   128
 43
0.0
 10
92.7000000775
 20
181.3050000763
 10
92.6381965801
 20
181.3147901392
 10
92.586973466
 20
181.3399999237
  0
LWPOLYLINE
  5
1FE
330
1F
100
AcDbEntity
  8
0
  6
Continuous
 62
     7
370
    25
100
AcDbPolyline
 90
        3
 70
   128
 43
0.0
 10
97.700000152
 20
181.3050000763
 10
97.6381964684
 20
181.3147901392
 10
97.5869735405
 20
181.3399999237
  0
LWPOLYLINE
  5
1FF
330
1F
100
AcDbEntity
  8
0
  6
Continuous
 62
     7
370
    25
100
AcDbPolyline
 90
        3
 70
   128
 43
0.0
 10
96.413026534
 20
181.3399999237
 10
96.3618034199
 20
181.3147901392
 10
96.2999999225
 20
181.3050000763
  0
LINE
  5
200
330
1F
100
AcDbEntity
  8
0
  6
Continuous
 62
     7
370
    25
100
AcDbLine
 10
116.6000000834
 20
182.2549997663
 30
0.0
 11
116.6000000834
 21
177.2549985743
 31
0.0
  0
LINE
  5
201
330
1F
100
AcDbEntity
  8
0
  6
Continuous
 62
     7
370
    25
100
AcDbLine
 10
111.2999997735
 20
181.3050000763
 30
0.0
 11
107.6999999285
 21
181.3050000763
 31
0.0
  0
LWPOLYLINE
  5
202
330
1F
100
AcDbEntity
  8
0
  6
Continuous
 62
     7
370
    25
100
AcDbPolyline
 90
        3
 70
   128
 43
0.0
 10
107.6999999285
 20
181.3050000763
 10
107.6381958723
 20
181.3147901392
 10
107.5869731307
 20
181.3399999237
  0
LWPOLYLINE
  5
203
330
1F
100
AcDbEntity
  8
0
  6
Continuous
 62
     7
370
    25
100
AcDbPolyline
 90
        3
 70
   128
 43
0.0
 10
111.4130265713
 20
181.3399999237
 10
111.3618038297
 20
181.3147901392
 10
111.2999997735
 20
181.3050000763
  0
LINE
  5
204
330
1F
100
AcDbEntity
  8
0
  6
Continuous
 62
     7
370
    25
100
AcDbLine
 10
106.3000000715
 20
181.3050000763
 30
0.0
 11
102.7000002265
 21
181.3050000763
 31
0.0
  0
LWPOLYLINE
  5
205
330
1F
100
AcDbEntity
  8
0
  6
Continuous
 62
     7
370
    25
100
AcDbPolyline
 90
        3
 70
   128
 43
0.0
 10
102.7000002265
 20
181.3050000763
 10
102.6381969154
 20
181.3147901392
 10
102.5869734287
 20
181.3399999237
  0
LINE
  5
206
330
1F
100
AcDbEntity
  8
0
  6
Continuous
 62
     7
370
    25
100
AcDbLine
 10
81.3000000715
 20
181.3050000763
 30
0.0
 11
77.7000002265
 21
181.3050000763
 31
0.0
  0
LWPOLYLINE
  5
207
330
1F
100
AcDbEntity
  8
0
  6
Continuous
 62
     7
370
    25
100
AcDbPolyline
 90
        3
 70
   128
 43
0.0
 10
81.4130268693
 20
181.3399999237
 10
81.3618041277
 20
181.3147901392
 10
81.3000000715
 20
181.3050000763
  0
LWPOLYLINE
  5
208
330
1F
100
AcDbEntity
  8
0
  6
Continuous
 62
     7
370
    25
100
AcDbPolyline
 90
        3
 70
   128
 43
0.0
 10
77.7000002265
 20
181.3050000763
 10
77.6381961703
 20
181.3147901392
 10
77.5869734287
 20
181.3399999237
  0
LWPOLYLINE
  5
209
330
1F
100
AcDbEntity
  8
0
  6
Continuous
 62
     7
370
    25
100
AcDbPolyline
 90
        3
 70
   128
 43
0.0
 10
101.4130264223
 20
181.3399999237
 10
101.3618036807
 20
181.3147901392
 10
101.3000003695
 20
181.3050000763
  0
LINE
  5
20A
330
1F
100
AcDbEntity
  8
0
  6
Continuous
 62
     7
370
    25
100
AcDbLine
 10
116.4750002027
 20
272.7400003767
 30
0.0
 11
116.4750002027
 21
282.4900000191
 31
0.0
  0
LINE
  5
20B
330
1F
100
AcDbEntity
  8
0
  6
Continuous
 62
     7
370
    25
100
AcDbLine
 10
116.4750002027
 20
282.4900000191
 30
0.0
 11
72.5249997973
 21
282.4900000191
 31
0.0
  0
LINE
  5
20C
330
1F
100
AcDbEntity
  8
0
  6
Continuous
 62
     7
370
    25
100
AcDbLine
 10
116.0250000358
 20
273.1900005436
 30
0.0
 11
72.9749999642
 21
273.1900005436
 31
0.0
  0
LINE
  5
20D
330
1F
100
AcDbEntity
  8
0
  6
Continuous
 62
     7
370
    25
100
AcDbLine
 10
116.0250000358
 20
282.0400028324
 30
0.0
 11
116.0250000358
 21
273.1900005436
 31
0.0
  0
LINE
  5
20E
330
1F
100
AcDbEntity
  8
0
  6
Continuous
 62
     7
370
    25
100
AcDbLine
 10
72.9749999642
 20
273.1900005436
 30
0.0
 11
72.9749999642
 21
282.0400028324
 31
0.0
  0
LINE
  5
20F
330
1F
100
AcDbEntity
  8
0
  6
Continuous
 62
     7
370
    25
100
AcDbLine
 10
72.5249997973
 20
282.4900000191
 30
0.0
 11
72.5249997973
 21
272.7400003767
 31
0.0
  0
LINE
  5
210
330
1F
100
AcDbEntity
  8
0
  6
Continuous
 62
     7
370
    25
100
AcDbLine
 10
72.5249997973
 20
272.7400003767
 30
0.0
 11
116.4750002027
 21
272.7400003767
 31
0.0
  0
LINE
  5
211
330
1F
100
AcDbEntity
  8
0
  6
Continuous
 62
     7
370
    25
100
AcDbLine
 10
72.9749999642
 20
282.0400028324
 30
0.0
 11
116.0250000358
 21
282.0400028324
 31
0.0
  0
LINE
  5
212
330
1F
100
AcDbEntity
  8
0
  6
Continuous
 62
     7
370
    25
100
AcDbLine
 10
116.0250000358
 20
280.2296428776
 30
0.0
 11
72.9749999642
 21
280.2296428776
 31
0.0
  0
LINE
  5
213
330
1F
100
AcDbEntity
  8
0
  6
Continuous
 62
     7
370
    25
100
AcDbLine
 10
116.0250000358
 20
274.9796449041
 30
0.0
 11
72.9749999642
 21
274.9796449041
 31
0.0
  0
LINE
  5
214
330
1F
100
AcDbEntity
  8
0
  6
Continuous
 62
     7
370
    25
100
AcDbLine
 10
116.0250000358
 20
281.9796471691
 30
0.0
 11
72.9749999642
 21
281.9796471691
 31
0.0
  0
LINE
  5
215
330
1F
100
AcDbEntity
  8
0
  6
Continuous
 62
     7
370
    25
100
AcDbLine
 10
116.0250000358
 20
276.7296462154
 30
0.0
 11
72.9749999642
 21
276.7296462154
 31
0.0
  0
LINE
  5
216
330
1F
100
AcDbEntity
  8
0
  6
Continuous
 62
     7
370
    25
100
AcDbLine
 10
116.0250000358
 20
278.4796445465
 30
0.0
 11
72.9749999642
 21
278.4796445465
 31
0.0
  0
LINE
  5
217
330
1F
100
AcDbEntity
  8
0
  6
Continuous
 62
     7
370
    25
100
AcDbLine
 10
116.0250000358
 20
277.7399985886
 30
0.0
 11
72.9749999642
 21
277.7399985886
 31
0.0
  0
LINE
  5
218
330
1F
100
AcDbEntity
  8
0
  6
Continuous
 62
     7
370
    25
100
AcDbLine
 10
116.0250000358
 20
281.2400012112
 30
0.0
 11
72.9749999642
 21
281.2400012112
 31
0.0
  0
LINE
  5
219
330
1F
100
AcDbEntity
  8
0
  6
Continuous
 62
     7
370
    25
100
AcDbLine
 10
116.0250000358
 20
277.3204474545
 30
0.0
 11
72.9749999642
 21
277.3204474545
 31
0.0
  0
LINE
  5
21A
330
1F
100
AcDbEntity
  8
0
  6
Continuous
 62
     7
370
    25
100
AcDbLine
 10
116.0250000358
 20
274.2399989462
 30
0.0
 11
72.9749999642
 21
274.2399989462
 31
0.0
  0
LINE
  5
21B
330
1F
100
AcDbEntity
  8
0
  6
Continuous
 62
     7
370
    25
100
AcDbLine
 10
116.0250000358
 20
275.5704491234
 30
0.0
 11
72.9749999642
 21
275.5704491234
 31
0.0
  0
LINE
  5
21C
330
1F
100
AcDbEntity
  8
0
  6
Continuous
 62
     7
370
    25
100
AcDbLine
 10
116.0250000358
 20
275.9900002575
 30
0.0
 11
72.9749999642
 21
275.9900002575
 31
0.0
  0
LINE
  5
21D
330
1F
100
AcDbEntity
  8
0
  6
Continuous
 62
     7
370
    25
100
AcDbLine
 10
116.0250000358
 20
279.070451746
 30
0.0
 11
72.9749999642
 21
279.070451746
 31
0.0
  0
LINE
  5
21E
330
1F
100
AcDbEntity
  8
0
  6
Continuous
 62
     7
370
    25
100
AcDbLine
 10
116.0250000358
 20
279.4900028801
 30
0.0
 11
72.9749999642
 21
279.4900028801
 31
0.0
  0
LINE
  5
21F
330
1F
100
AcDbEntity
  8
0
  6
Continuous
 62
     7
370
    25
100
AcDbLine
 10
116.0250000358
 20
280.8204500771
 30
0.0
 11
72.9749999642
 21
280.8204500771
 31
0.0
  0
LINE
  5
220
330
1F
100
AcDbEntity
  8
0
  6
Continuous
 62
     7
370
    25
100
AcDbLine
 10
116.0250000358
 20
273.8204507923
 30
0.0
 11
72.9749999642
 21
273.8204507923
 31
0.0
  0
LINE
  5
221
330
1F
100
AcDbEntity
  8
0
  6
Continuous
 62
     7
370
    25
100
AcDbLine
 10
116.6499994397
 20
182.2549997663
 30
0.0
 11
116.4750002027
 21
182.2549997663
 31
0.0
  0
LINE
  5
222
330
1F
100
AcDbEntity
  8
0
  6
Continuous
 62
     7
370
    25
100
AcDbLine
 10
72.5249997973
 20
182.2549997663
 30
0.0
 11
72.3500005603
 21
182.2549997663
 31
0.0
  0
LINE
  5
223
330
1F
100
AcDbEntity
  8
0
  6
Continuous
 62
     7
370
    25
100
AcDbLine
 10
116.6499994397
 20
272.7400003767
 30
0.0
 11
116.6499994397
 21
272.4900006151
 31
0.0
  0
LINE
  5
224
330
1F
100
AcDbEntity
  8
0
  6
Continuous
 62
     7
370
    25
100
AcDbLine
 10
116.6499994397
 20
182.5049995279
 30
0.0
 11
116.6499994397
 21
182.2549997663
 31
0.0
  0
LINE
  5
225
330
1F
100
AcDbEntity
  8
0
  6
Continuous
 62
     7
370
    25
100
AcDbLine
 10
72.3500005603
 20
272.7400003767
 30
0.0
 11
72.3500005603
 21
272.4900006151
 31
0.0
  0
LINE
  5
226
330
1F
100
AcDbEntity
  8
0
  6
Continuous
 62
     7
370
    25
100
AcDbLine
 10
72.3500005603
 20
182.5049995279
 30
0.0
 11
72.3500005603
 21
182.2549997663
 31
0.0
  0
LINE
  5
227
330
1F
100
AcDbEntity
  8
0
  6
Continuous
 62
     7
370
    25
100
AcDbLine
 10
72.6584993005
 20
176.4899997807
 30
0.0
 11
74.391499877
 21
176.4899997807
 31
0.0
  0
LINE
  5
228
330
1F
100
AcDbEntity
  8
0
  6
Continuous
 62
     7
370
    25
100
AcDbLine
 10
116.3415006995
 20
176.4899997807
 30
0.0
 11
114.608500123
 21
176.4899997807
 31
0.0
  0
LINE
  5
229
330
1F
100
AcDbEntity
  8
0
  6
Continuous
 62
     7
370
    25
100
AcDbLine
 10
116.6399992704
 20
182.2450010872
 30
0.0
 11
116.6399992704
 21
182.2549997663
 31
0.0
  0
LINE
  5
22A
330
1F
100
AcDbEntity
  8
0
  6
Continuous
 62
     7
370
    25
100
AcDbLine
 10
116.6499994397
 20
182.2450010872
 30
0.0
 11
116.6399992704
 21
182.2450010872
 31
0.0
  0
LINE
  5
22B
330
1F
100
AcDbEntity
  8
0
  6
Continuous
 62
     7
370
    25
100
AcDbLine
 10
116.6499994397
 20
178.1049995518
 30
0.0
 11
116.6499994397
 21
182.2450010872
 31
0.0
  0
LINE
  5
22C
330
1F
100
AcDbEntity
  8
0
  6
Continuous
 62
     7
370
    25
100
AcDbLine
 10
116.6499994397
 20
178.1049995518
 30
0.0
 11
116.6000000834
 21
178.1049995518
 31
0.0
  0
LINE
  5
22D
330
1F
100
AcDbEntity
  8
0
  6
Continuous
 62
     7
370
    25
100
AcDbLine
 10
72.3999999166
 20
178.1049995518
 30
0.0
 11
72.3500005603
 21
178.1049995518
 31
0.0
  0
LINE
  5
22E
330
1F
100
AcDbEntity
  8
0
  6
Continuous
 62
     7
370
    25
100
AcDbLine
 10
72.3500005603
 20
178.1049995518
 30
0.0
 11
72.3500005603
 21
182.2450010872
 31
0.0
  0
LINE
  5
22F
330
1F
100
AcDbEntity
  8
0
  6
Continuous
 62
     7
370
    25
100
AcDbLine
 10
72.3600007296
 20
182.2549997663
 30
0.0
 11
72.3600007296
 21
182.2450010872
 31
0.0
  0
LINE
  5
230
330
1F
100
AcDbEntity
  8
0
  6
Continuous
 62
     7
370
    25
100
AcDbLine
 10
72.3600007296
 20
182.2450010872
 30
0.0
 11
72.3500005603
 21
182.2450010872
 31
0.0
  0
LINE
  5
231
330
1F
100
AcDbEntity
  8
0
  6
Continuous
 62
     7
370
    25
100
AcDbLine
 10
116.0589150786
 20
177.0265011883
 30
0.0
 11
114.8910857439
 21
177.0265011883
 31
0.0
  0
LINE
  5
232
330
1F
100
AcDbEntity
  8
0
  6
Continuous
 62
     7
370
    25
100
AcDbLine
 10
72.9410849214
 20
177.0265011883
 30
0.0
 11
74.1089142561
 21
177.0265011883
 31
0.0
  0
LINE
  5
233
330
1F
100
AcDbEntity
  8
0
  6
Continuous
 62
     7
370
    25
100
AcDbLine
 10
73.1093071103
 20
177.1874992943
 30
0.0
 11
73.9406920671
 21
177.1874992943
 31
0.0
  0
LINE
  5
234
330
1F
100
AcDbEntity
  8
0
  6
Continuous
 62
     7
370
    25
100
AcDbLine
 10
115.8906928897
 20
177.1874992943
 30
0.0
 11
115.0593079329
 21
177.1874992943
 31
0.0
  0
LINE
  5
235
330
1F
100
AcDbEntity
  8
0
  6
Continuous
 62
     7
370
    25
100
AcDbLine
 10
72.3999999166
 20
177.4049996233
 30
0.0
 11
72.3500005603
 21
177.4049996233
 31
0.0
  0
LINE
  5
236
330
1F
100
AcDbEntity
  8
0
  6
Continuous
 62
     7
370
    25
100
AcDbLine
 10
72.3500005603
 20
177.4049996233
 30
0.0
 11
72.3500005603
 21
178.1049995518
 31
0.0
  0
LINE
  5
237
330
1F
100
AcDbEntity
  8
0
  6
Continuous
 62
     7
370
    25
100
AcDbLine
 10
116.6499994397
 20
177.4049996233
 30
0.0
 11
116.6000000834
 21
177.4049996233
 31
0.0
  0
LINE
  5
238
330
1F
100
AcDbEntity
  8
0
  6
Continuous
 62
     7
370
    25
100
AcDbLine
 10
116.6499994397
 20
177.4049996233
 30
0.0
 11
116.6499994397
 21
178.1049995518
 31
0.0
  0
LINE
  5
239
330
1F
100
AcDbEntity
  8
0
  6
Continuous
 62
     7
370
    25
100
AcDbLine
 10
114.9624995589
 20
177.2549985743
 30
0.0
 11
114.9624995589
 21
177.0265011883
 31
0.0
  0
LINE
  5
23A
330
1F
100
AcDbEntity
  8
0
  6
Continuous
 62
     7
370
    25
100
AcDbLine
 10
115.9874997735
 20
177.2549985743
 30
0.0
 11
115.9874997735
 21
177.0265011883
 31
0.0
  0
LINE
  5
23B
330
1F
100
AcDbEntity
  8
0
  6
Continuous
 62
     7
370
    25
100
AcDbLine
 10
73.0125002265
 20
177.2549985743
 30
0.0
 11
73.0125002265
 21
177.0265011883
 31
0.0
  0
LINE
  5
23C
330
1F
100
AcDbEntity
  8
0
  6
Continuous
 62
     7
370
    25
100
AcDbLine
 10
74.0375004411
 20
177.2549985743
 30
0.0
 11
74.0375004411
 21
177.0265011883
 31
0.0
  0
LINE
  5
23D
330
1F
100
AcDbEntity
  8
0
  6
Continuous
 62
     7
370
    25
100
AcDbLine
 10
72.141017735
 20
182.5049995279
 30
0.0
 11
72.1299998164
 21
182.5049995279
 31
0.0
  0
LINE
  5
23E
330
1F
100
AcDbEntity
  8
0
  6
Continuous
 62
     7
370
    25
100
AcDbLine
 10
72.1299998164
 20
182.5049995279
 30
0.0
 11
72.1299998164
 21
272.4900006151
 31
0.0
  0
LINE
  5
23F
330
1F
100
AcDbEntity
  8
0
  6
Continuous
 62
     7
370
    25
100
AcDbLine
 10
72.141017735
 20
272.4900006151
 30
0.0
 11
72.1299998164
 21
272.4900006151
 31
0.0
  0
LINE
  5
240
330
1F
100
AcDbEntity
  8
0
  6
Continuous
 62
     7
370
    25
100
AcDbLine
 10
72.141017735
 20
182.5049995279
 30
0.0
 11
72.141017735
 21
272.4900006151
 31
0.0
  0
LINE
  5
241
330
1F
100
AcDbEntity
  8
0
  6
Continuous
 62
     7
370
    25
100
AcDbLine
 10
72.1840686798
 20
182.5049995279
 30
0.0
 11
72.1840686798
 21
272.4900006151
 31
0.0
  0
LINE
  5
242
330
1F
100
AcDbEntity
  8
0
  6
Continuous
 62
     7
370
    25
100
AcDbLine
 10
72.1840686798
 20
272.4900006151
 30
0.0
 11
72.141017735
 21
272.4900006151
 31
0.0
  0
LINE
  5
243
330
1F
100
AcDbEntity
  8
0
  6
Continuous
 62
     7
370
    25
100
AcDbLine
 10
72.1840686798
 20
182.5049995279
 30
0.0
 11
72.141017735
 21
182.5049995279
 31
0.0
  0
LINE
  5
244
330
1F
100
AcDbEntity
  8
0
  6
Continuous
 62
     7
370
    25
100
AcDbLine
 10
72.1199996471
 20
182.5049995279
 30
0.0
 11
72.1199996471
 21
272.4900006151
 31
0.0
  0
LINE
  5
245
330
1F
100
AcDbEntity
  8
0
  6
Continuous
 62
     7
370
    25
100
AcDbLine
 10
72.1299998164
 20
272.4900006151
 30
0.0
 11
72.1199996471
 21
272.4900006151
 31
0.0
  0
LINE
  5
246
330
1F
100
AcDbEntity
  8
0
  6
Continuous
 62
     7
370
    25
100
AcDbLine
 10
72.1299998164
 20
182.5049995279
 30
0.0
 11
72.1199996471
 21
182.5049995279
 31
0.0
  0
LINE
  5
247
330
1F
100
AcDbEntity
  8
0
  6
Continuous
 62
     7
370
    25
100
AcDbLine
 10
72.0250002742
 20
182.5049995279
 30
0.0
 11
72.0250002742
 21
272.4900006151
 31
0.0
  0
LINE
  5
248
330
1F
100
AcDbEntity
  8
0
  6
Continuous
 62
     7
370
    25
100
AcDbLine
 10
72.1199996471
 20
272.4900006151
 30
0.0
 11
72.0250002742
 21
272.4900006151
 31
0.0
  0
LINE
  5
249
330
1F
100
AcDbEntity
  8
0
  6
Continuous
 62
     7
370
    25
100
AcDbLine
 10
72.1199996471
 20
182.5049995279
 30
0.0
 11
72.0250002742
 21
182.5049995279
 31
0.0
  0
LINE
  5
24A
330
1F
100
AcDbEntity
  8
0
  6
Continuous
 62
     7
370
    25
100
AcDbLine
 10
72.1850000024
 20
272.4900006151
 30
0.0
 11
72.1840686798
 21
272.4900006151
 31
0.0
  0
LINE
  5
24B
330
1F
100
AcDbEntity
  8
0
  6
Continuous
 62
     7
370
    25
100
AcDbLine
 10
72.1850000024
 20
182.5049995279
 30
0.0
 11
72.1840686798
 21
182.5049995279
 31
0.0
  0
LINE
  5
24C
330
1F
100
AcDbEntity
  8
0
  6
Continuous
 62
     7
370
    25
100
AcDbLine
 10
73.0686269403
 20
207.1400000548
 30
0.0
 11
73.0686269403
 21
207.5399993753
 31
0.0
  0
LINE
  5
24D
330
1F
100
AcDbEntity
  8
0
  6
Continuous
 62
     7
370
    25
100
AcDbLine
 10
73.0686269403
 20
272.3399995661
 30
0.0
 11
73.0686269403
 21
272.4900006151
 31
0.0
  0
LINE
  5
24E
330
1F
100
AcDbEntity
  8
0
  6
Continuous
 62
     7
370
    25
100
AcDbLine
 10
73.082252562
 20
207.1400000548
 30
0.0
 11
73.082252562
 21
207.5399993753
 31
0.0
  0
LINE
  5
24F
330
1F
100
AcDbEntity
  8
0
  6
Continuous
 62
     7
370
    25
100
AcDbLine
 10
73.082252562
 20
272.3399995661
 30
0.0
 11
73.082252562
 21
272.4900006151
 31
0.0
  0
LINE
  5
250
330
1F
100
AcDbEntity
  8
0
  6
Continuous
 62
     7
370
    25
100
AcDbLine
 10
73.082252562
 20
272.4900006151
 30
0.0
 11
73.0686269403
 21
272.4900006151
 31
0.0
  0
LINE
  5
251
330
1F
100
AcDbEntity
  8
0
  6
Continuous
 62
     7
370
    25
100
AcDbLine
 10
73.0686269403
 20
272.4900006151
 30
0.0
 11
72.1850000024
 21
272.4900006151
 31
0.0
  0
LINE
  5
252
330
1F
100
AcDbEntity
  8
0
  6
Continuous
 62
     7
370
    25
100
AcDbLine
 10
72.5249997973
 20
182.5049995279
 30
0.0
 11
72.1850000024
 21
182.5049995279
 31
0.0
  0
LINE
  5
253
330
1F
100
AcDbEntity
  8
0
  6
Continuous
 62
     7
370
    25
100
AcDbLine
 10
73.082252562
 20
272.4900006151
 30
0.0
 11
73.0825222731
 21
272.4900006151
 31
0.0
  0
LINE
  5
254
330
1F
100
AcDbEntity
  8
0
  6
Continuous
 62
     7
370
    25
100
AcDbLine
 10
116.8700001836
 20
182.5049995279
 30
0.0
 11
116.858982265
 21
182.5049995279
 31
0.0
  0
LINE
  5
255
330
1F
100
AcDbEntity
  8
0
  6
Continuous
 62
     7
370
    25
100
AcDbLine
 10
116.858982265
 20
182.5049995279
 30
0.0
 11
116.858982265
 21
272.4900006151
 31
0.0
  0
LINE
  5
256
330
1F
100
AcDbEntity
  8
0
  6
Continuous
 62
     7
370
    25
100
AcDbLine
 10
116.8700001836
 20
182.5049995279
 30
0.0
 11
116.8700001836
 21
272.4900006151
 31
0.0
  0
LINE
  5
257
330
1F
100
AcDbEntity
  8
0
  6
Continuous
 62
     7
370
    25
100
AcDbLine
 10
116.8700001836
 20
272.4900006151
 30
0.0
 11
116.858982265
 21
272.4900006151
 31
0.0
  0
LINE
  5
258
330
1F
100
AcDbEntity
  8
0
  6
Continuous
 62
     7
370
    25
100
AcDbLine
 10
116.8159313202
 20
182.5049995279
 30
0.0
 11
116.8159313202
 21
272.4900006151
 31
0.0
  0
LINE
  5
259
330
1F
100
AcDbEntity
  8
0
  6
Continuous
 62
     7
370
    25
100
AcDbLine
 10
116.858982265
 20
182.5049995279
 30
0.0
 11
116.8159313202
 21
182.5049995279
 31
0.0
  0
LINE
  5
25A
330
1F
100
AcDbEntity
  8
0
  6
Continuous
 62
     7
370
    25
100
AcDbLine
 10
116.858982265
 20
272.4900006151
 30
0.0
 11
116.8159313202
 21
272.4900006151
 31
0.0
  0
LINE
  5
25B
330
1F
100
AcDbEntity
  8
0
  6
Continuous
 62
     7
370
    25
100
AcDbLine
 10
116.8800003529
 20
182.5049995279
 30
0.0
 11
116.8800003529
 21
272.4900006151
 31
0.0
  0
LINE
  5
25C
330
1F
100
AcDbEntity
  8
0
  6
Continuous
 62
     7
370
    25
100
AcDbLine
 10
116.8800003529
 20
182.5049995279
 30
0.0
 11
116.8700001836
 21
182.5049995279
 31
0.0
  0
LINE
  5
25D
330
1F
100
AcDbEntity
  8
0
  6
Continuous
 62
     7
370
    25
100
AcDbLine
 10
116.8800003529
 20
272.4900006151
 30
0.0
 11
116.8700001836
 21
272.4900006151
 31
0.0
  0
LINE
  5
25E
330
1F
100
AcDbEntity
  8
0
  6
Continuous
 62
     7
370
    25
100
AcDbLine
 10
116.9749997258
 20
182.5049995279
 30
0.0
 11
116.9749997258
 21
272.4900006151
 31
0.0
  0
LINE
  5
25F
330
1F
100
AcDbEntity
  8
0
  6
Continuous
 62
     7
370
    25
100
AcDbLine
 10
116.9749997258
 20
182.5049995279
 30
0.0
 11
116.8800003529
 21
182.5049995279
 31
0.0
  0
LINE
  5
260
330
1F
100
AcDbEntity
  8
0
  6
Continuous
 62
     7
370
    25
100
AcDbLine
 10
116.9749997258
 20
272.4900006151
 30
0.0
 11
116.8800003529
 21
272.4900006151
 31
0.0
  0
LINE
  5
261
330
1F
100
AcDbEntity
  8
0
  6
Continuous
 62
     7
370
    25
100
AcDbLine
 10
116.8159313202
 20
182.5049995279
 30
0.0
 11
116.8149999976
 21
182.5049995279
 31
0.0
  0
LINE
  5
262
330
1F
100
AcDbEntity
  8
0
  6
Continuous
 62
     7
370
    25
100
AcDbLine
 10
116.8159313202
 20
272.4900006151
 30
0.0
 11
116.8149999976
 21
272.4900006151
 31
0.0
  0
LINE
  5
263
330
1F
100
AcDbEntity
  8
0
  6
Continuous
 62
     7
370
    25
100
AcDbLine
 10
115.9313730597
 20
207.1400000548
 30
0.0
 11
115.9313730597
 21
207.5399993753
 31
0.0
  0
LINE
  5
264
330
1F
100
AcDbEntity
  8
0
  6
Continuous
 62
     7
370
    25
100
AcDbLine
 10
115.9313730597
 20
272.3399995661
 30
0.0
 11
115.9313730597
 21
272.4900006151
 31
0.0
  0
LINE
  5
265
330
1F
100
AcDbEntity
  8
0
  6
Continuous
 62
     7
370
    25
100
AcDbLine
 10
116.8149999976
 20
182.5049995279
 30
0.0
 11
116.4750002027
 21
182.5049995279
 31
0.0
  0
LINE
  5
266
330
1F
100
AcDbEntity
  8
0
  6
Continuous
 62
     7
370
    25
100
AcDbLine
 10
116.8149999976
 20
272.4900006151
 30
0.0
 11
115.9313730597
 21
272.4900006151
 31
0.0
  0
LINE
  5
267
330
1F
100
AcDbEntity
  8
0
  6
Continuous
 62
     7
370
    25
100
AcDbLine
 10
115.917747438
 20
207.1400000548
 30
0.0
 11
115.917747438
 21
207.5399993753
 31
0.0
  0
LINE
  5
268
330
1F
100
AcDbEntity
  8
0
  6
Continuous
 62
     7
370
    25
100
AcDbLine
 10
115.917747438
 20
272.3399995661
 30
0.0
 11
115.917747438
 21
272.4900006151
 31
0.0
  0
LINE
  5
269
330
1F
100
AcDbEntity
  8
0
  6
Continuous
 62
     7
370
    25
100
AcDbLine
 10
115.9313730597
 20
272.4900006151
 30
0.0
 11
115.917747438
 21
272.4900006151
 31
0.0
  0
LINE
  5
26A
330
1F
100
AcDbEntity
  8
0
  6
Continuous
 62
     7
370
    25
100
AcDbLine
 10
115.917747438
 20
272.4900006151
 30
0.0
 11
115.9174777269
 21
272.4900006151
 31
0.0
  0
LINE
  5
26B
330
1F
100
AcDbEntity
  8
0
  6
Continuous
 62
     8
370
    25
100
AcDbLine
 10
72.5835002661
 20
176.5650003052
 30
0.0
 11
74.4665004015
 21
176.5650003052
 31
0.0
  0
LINE
  5
26C
330
1F
100
AcDbEntity
  8
0
  6
Continuous
 62
     8
370
    25
100
AcDbLine
 10
116.4164997339
 20
176.5650003052
 30
0.0
 11
114.5334995985
 21
176.5650003052
 31
0.0
  0
LINE
  5
26D
330
1F
100
AcDbEntity
  8
0
  6
Continuous
 62
     8
370
    25
100
AcDbLine
 10
72.5835002661
 20
176.6596405602
 30
0.0
 11
74.4665004015
 21
176.6596405602
 31
0.0
  0
LINE
  5
26E
330
1F
100
AcDbEntity
  8
0
  6
Continuous
 62
     8
370
    25
100
AcDbLine
 10
116.4164997339
 20
176.6596405602
 30
0.0
 11
114.5334995985
 21
176.6596405602
 31
0.0
  0
LINE
  5
26F
330
1F
100
AcDbEntity
  8
0
  6
Continuous
 62
     8
370
    25
100
AcDbLine
 10
116.3953818083
 20
176.7118095255
 30
0.0
 11
114.5546175241
 21
176.7118095255
 31
0.0
  0
LINE
  5
270
330
1F
100
AcDbEntity
  8
0
  6
Continuous
 62
     8
370
    25
100
AcDbLine
 10
72.6046181917
 20
176.7118095255
 30
0.0
 11
74.4453824759
 21
176.7118095255
 31
0.0
  0
LINE
  5
271
330
1F
100
AcDbEntity
  8
0
  6
Continuous
 62
     8
370
    25
100
AcDbLine
 10
72.8872038126
 20
177.0036696291
 30
0.0
 11
74.162796855
 21
177.0036696291
 31
0.0
  0
LINE
  5
272
330
1F
100
AcDbEntity
  8
0
  6
Continuous
 62
     8
370
    25
100
AcDbLine
 10
116.1127961874
 20
177.0036696291
 30
0.0
 11
114.837203145
 21
177.0036696291
 31
0.0
  0
LINE
  5
273
330
1F
100
AcDbEntity
  8
0
  6
Continuous
 62
     7
370
    25
100
AcDbLine
 10
112.474999547
 20
96.4399996543
 30
0.0
 11
112.474999547
 21
94.6582320476
 31
0.0
  0
LINE
  5
274
330
1F
100
AcDbEntity
  8
0
  6
Continuous
 62
     7
370
    25
100
AcDbLine
 10
113.724999845
 20
94.6545782828
 30
0.0
 11
113.724999845
 21
96.4399996543
 31
0.0
  0
LINE
  5
275
330
1F
100
AcDbEntity
  8
0
  6
Continuous
 62
     7
370
    25
100
AcDbLine
 10
76.9014425278
 20
94.9900004411
 30
0.0
 11
75.0250003934
 21
94.9900004411
 31
0.0
  0
LINE
  5
276
330
1F
100
AcDbEntity
  8
0
  6
Continuous
 62
     7
370
    25
100
AcDbLine
 10
110.851442039
 20
94.9900004411
 30
0.0
 11
78.1500003934
 21
94.9900004411
 31
0.0
  0
LINE
  5
277
330
1F
100
AcDbEntity
  8
0
  6
Continuous
 62
     7
370
    25
100
AcDbLine
 10
113.9749996066
 20
94.9900004411
 30
0.0
 11
113.724999845
 21
94.9900004411
 31
0.0
  0
LINE
  5
278
330
1F
100
AcDbEntity
  8
0
  6
Continuous
 62
     7
370
    25
100
AcDbLine
 10
112.474999547
 20
94.9900004411
 30
0.0
 11
112.0999999046
 21
94.9900004411
 31
0.0
  0
LINE
  5
279
330
1F
100
AcDbEntity
  8
0
  6
Continuous
 62
     7
370
    25
100
AcDbLine
 10
75.0250003934
 20
93.4900003815
 30
0.0
 11
113.9749996066
 21
93.4900003815
 31
0.0
  0
LINE
  5
27A
330
1F
100
AcDbEntity
  8
0
  6
Continuous
 62
     7
370
    25
100
AcDbLine
 10
76.9000000954
 20
96.4399996543
 30
0.0
 11
76.9000000954
 21
94.9887994075
 31
0.0
  0
LINE
  5
27B
330
1F
100
AcDbEntity
  8
0
  6
Continuous
 62
     7
370
    25
100
AcDbLine
 10
78.1500003934
 20
94.9900004411
 30
0.0
 11
78.1500003934
 21
96.4399996543
 31
0.0
  0
LINE
  5
27C
330
1F
100
AcDbEntity
  8
0
  6
Continuous
 62
     7
370
    25
100
AcDbLine
 10
110.8499996066
 20
96.4399996543
 30
0.0
 11
110.8499996066
 21
94.9887994075
 31
0.0
  0
LINE
  5
27D
330
1F
100
AcDbEntity
  8
0
  6
Continuous
 62
     7
370
    25
100
AcDbLine
 10
112.0999999046
 20
94.9900004411
 30
0.0
 11
112.0999999046
 21
96.4399996543
 31
0.0
  0
LINE
  5
27E
330
1F
100
AcDbEntity
  8
0
  6
Continuous
 62
     7
370
    25
100
AcDbLine
 10
116.6499994397
 20
99.8899999404
 30
0.0
 11
72.3500005603
 21
99.8899999404
 31
0.0
  0
LINE
  5
27F
330
1F
100
AcDbEntity
  8
0
  6
Continuous
 62
     7
370
    25
100
AcDbLine
 10
72.3500005603
 20
125.8899997318
 30
0.0
 11
116.6499994397
 21
125.8899997318
 31
0.0
  0
LINE
  5
280
330
1F
100
AcDbEntity
  8
0
  6
Continuous
 62
     7
370
    25
100
AcDbLine
 10
72.3500005603
 20
99.8899999404
 30
0.0
 11
72.3500005603
 21
125.8899997318
 31
0.0
  0
LINE
  5
281
330
1F
100
AcDbEntity
  8
0
  6
Continuous
 62
     7
370
    25
100
AcDbLine
 10
116.6499994397
 20
125.8899997318
 30
0.0
 11
116.6499994397
 21
99.8899999404
 31
0.0
  0
CIRCLE
  5
282
330
1F
100
AcDbEntity
  8
0
  6
Continuous
 62
     7
370
    25
100
AcDbCircle
 10
113.0999999675
 20
94.24
 30
0.0
 40
0.75
  0
SPLINE
  5
283
330
1F
100
AcDbEntity
  8
0
  6
Continuous
 62
     7
370
    25
100
AcDbSpline
210
0.0
220
0.0
230
1.0
 70
     8
 71
     3
 72
    23
 73
    19
 74
     0
 42
0.000000001
 43
0.00000001
 40
0.0
 40
0.0
 40
0.0
 40
0.0
 40
0.0847278238301138
 40
0.1690971393692745
 40
0.226215819956505
 40
0.2849765661091427
 40
0.3432009562028188
 40
0.4029900659604064
 40
0.4672124627457595
 40
0.5320102824871364
 40
0.6024269487471596
 40
0.6579469815317259
 40
0.7149580615114979
 40
0.77333637432419
 40
0.833337634120011
 40
0.9223590647880014
 40
0.9665038364020992
 40
0.9999999999999999
 40
0.9999999999999999
 40
0.9999999999999999
 40
0.9999999999999999
 10
112.0999999046326
 20
94.99000044107436
 30
0.0
 10
112.0949913456176
 20
94.98580219771623
 30
0.0
 10
112.0849954202709
 20
94.9774234749998
 30
0.0
 10
112.0195402566744
 20
94.92388716985101
 30
0.0
 10
111.9438824479132
 20
94.86529114561417
 30
0.0
 10
111.8653063740006
 20
94.80830569166406
 30
0.0
 10
111.774535268275
 20
94.7495277789182
 30
0.0
 10
111.6691567449622
 20
94.69399432505426
 30
0.0
 10
111.544854293656
 20
94.65317430950768
 30
0.0
 10
111.4019040032149
 20
94.6529656368949
 30
0.0
 10
111.276664047169
 20
94.69586898403693
 30
0.0
 10
111.1717109304712
 20
94.75192503092308
 30
0.0
 10
111.0840318836447
 20
94.80879517202291
 30
0.0
 10
111.0050477948696
 20
94.86605330615471
 30
0.0
 10
110.9262850962777
 20
94.92720324836645
 30
0.0
 10
110.8750868161519
 20
94.96915001583504
 30
0.0
 10
110.8520774329149
 20
94.98826749064057
 30
0.0
 10
110.8516335435449
 20
94.98863804941406
 30
0.0
 10
110.8514420390129
 20
94.98879791736603
 30
0.0
  0
SPLINE
  5
284
330
1F
100
AcDbEntity
  8
0
  6
Continuous
 62
     7
370
    25
100
AcDbSpline
210
0.0
220
0.0
230
1.0
 70
     8
 71
     3
 72
    23
 73
    19
 74
     0
 42
0.000000001
 43
0.00000001
 40
0.0
 40
0.0
 40
0.0
 40
0.0
 40
0.012296829288374
 40
0.0911704722490751
 40
0.1711912029192714
 40
0.2286036396513912
 40
0.2876671445587646
 40
0.3461432176367805
 40
0.4062282048053937
 40
0.4698572624091492
 40
0.5340285491816238
 40
0.6052652509257952
 40
0.6614962055935424
 40
0.719244089894579
 40
0.7781600605078495
 40
0.8387779426551554
 40
0.9269079425428949
 40
1.0
 40
1.0
 40
1.0
 40
1.0
 10
76.90144252777101
 20
94.98879791736603
 30
0.0
 10
76.90103709322682
 20
94.98913595009542
 30
0.0
 10
76.89803114283156
 20
94.99164217367971
 30
0.0
 10
76.92380107989692
 20
94.97011677218204
 30
0.0
 10
76.98346655199884
 20
94.92154611557876
 30
0.0
 10
77.05906945396973
 20
94.86304985234418
 30
0.0
 10
77.1382913224549
 20
94.80581078945869
 30
0.0
 10
77.23005778113301
 20
94.74678377996348
 30
0.0
 10
77.33601380363808
 20
94.69171921400107
 30
0.0
 10
77.46040547115621
 20
94.6523877924961
 30
0.0
 10
77.60297697923659
 20
94.65389857405822
 30
0.0
 10
77.72822600460903
 20
94.69801334543
 30
0.0
 10
77.83384135762924
 20
94.75523609310675
 30
0.0
 10
77.92180885448612
 20
94.81283331723654
 30
0.0
 10
78.0009238539472
 20
94.87057028558038
 30
0.0
 10
78.07775435666
 20
94.93044632147976
 30
0.0
 10
78.13802261579968
 20
94.97997872529764
 30
0.0
 10
78.14626403969883
 20
94.98687426224392
 30
0.0
 10
78.15000039339067
 20
94.99000044107436
 30
0.0
  0
LINE
  5
285
330
1F
100
AcDbEntity
  8
0
  6
Continuous
 62
     7
370
    25
100
AcDbLine
 10
113.9749996066
 20
94.9900004411
 30
0.0
 11
113.9749996066
 21
93.4900003815
 31
0.0
  0
LINE
  5
286
330
1F
100
AcDbEntity
  8
0
  6
Continuous
 62
     7
370
    25
100
AcDbLine
 10
75.0250003934
 20
94.2399996662
 30
0.0
 11
75.0250003934
 21
93.4900003815
 31
0.0
  0
LINE
  5
287
330
1F
100
AcDbEntity
  8
0
  6
Continuous
 62
     7
370
    25
100
AcDbLine
 10
75.0250003934
 20
94.9900004411
 30
0.0
 11
75.0250003934
 21
94.2399996662
 31
0.0
  0
LINE
  5
288
330
1F
100
AcDbEntity
  8
0
  6
Continuous
 62
     7
370
    25
100
AcDbLine
 10
116.4750002027
 20
96.4399996543
 30
0.0
 11
72.5249997973
 21
96.4399996543
 31
0.0
  0
LINE
  5
289
330
1F
100
AcDbEntity
  8
0
  6
Continuous
 62
     7
370
    25
100
AcDbLine
 10
72.5249997973
 20
99.8899999404
 30
0.0
 11
116.4750002027
 21
99.8899999404
 31
0.0
  0
LINE
  5
28A
330
1F
100
AcDbEntity
  8
0
  6
Continuous
 62
     7
370
    25
100
AcDbLine
 10
116.4750002027
 20
96.4399996543
 30
0.0
 11
116.4750002027
 21
99.8899999404
 31
0.0
  0
LINE
  5
28B
330
1F
100
AcDbEntity
  8
0
  6
Continuous
 62
     7
370
    25
100
AcDbLine
 10
72.5249997973
 20
96.4399996543
 30
0.0
 11
72.5249997973
 21
99.8899999404
 31
0.0
  0
LINE
  5
28C
330
1F
100
AcDbEntity
  8
0
  6
Continuous
 62
     7
370
    25
100
AcDbLine
 10
72.3500005603
 20
127.8900000596
 30
0.0
 11
116.6499994397
 21
127.8900000596
 31
0.0
  0
LINE
  5
28D
330
1F
100
AcDbEntity
  8
0
  6
Continuous
 62
     7
370
    25
100
AcDbLine
 10
72.3500005603
 20
127.8900000596
 30
0.0
 11
72.3500005603
 21
125.8899997318
 31
0.0
  0
LINE
  5
28E
330
1F
100
AcDbEntity
  8
0
  6
Continuous
 62
     7
370
    25
100
AcDbLine
 10
116.6499994397
 20
127.8900000596
 30
0.0
 11
116.6499994397
 21
125.8899997318
 31
0.0
  0
LINE
  5
28F
330
1F
100
AcDbEntity
  8
0
  6
Continuous
 62
     7
370
    25
100
AcDbLine
 10
72.2750000358
 20
99.9149996185
 30
0.0
 11
72.2750000358
 21
101.39
 31
0.0
  0
LINE
  5
290
330
1F
100
AcDbEntity
  8
0
  6
Continuous
 62
     7
370
    25
100
AcDbLine
 10
72.2750000358
 20
101.39
 30
0.0
 11
72.3500005603
 21
101.39
 31
0.0
  0
LINE
  5
291
330
1F
100
AcDbEntity
  8
0
  6
Continuous
 62
     7
370
    25
100
AcDbLine
 10
72.3500005603
 20
99.8899999404
 30
0.0
 11
72.3500005603
 21
99.8650002623
 31
0.0
  0
ARC
  5
292
330
1F
100
AcDbEntity
  8
0
  6
Continuous
 62
     7
370
    25
100
AcDbCircle
 10
72.3990734406
 20
99.8745810737
 30
0.0
 40
0.049999995000013
100
AcDbArc
 50
191.0474249458
 51
271.0618139955
  0
LINE
  5
293
330
1F
100
AcDbEntity
  8
0
  6
Continuous
 62
     7
370
    25
100
AcDbLine
 10
72.3999999166
 20
99.8245898032
 30
0.0
 11
72.5000001192
 21
99.8245898032
 31
0.0
  0
ARC
  5
294
330
1F
100
AcDbEntity
  8
0
  6
Continuous
 62
     7
370
    25
100
AcDbCircle
 10
72.5009265344
 20
99.8745810737
 30
0.0
 40
0.0499999950000134
100
AcDbArc
 50
268.9381860046
 51
298.7814548012
  0
LINE
  5
295
330
1F
100
AcDbEntity
  8
0
  6
Continuous
 62
     7
370
    25
100
AcDbLine
 10
72.5249997973
 20
99.7645902777
 30
0.0
 11
72.175409615
 21
99.7645902777
 31
0.0
  0
ARC
  5
296
330
1F
100
AcDbEntity
  8
0
  6
Continuous
 62
     7
370
    25
100
AcDbCircle
 10
72.174998323
 20
99.714591364
 30
0.0
 40
0.0499999950000003
100
AcDbArc
 50
89.5282858826
 51
179.5282859575
  0
LINE
  5
297
330
1F
100
AcDbEntity
  8
0
  6
Continuous
 62
     7
370
    25
100
AcDbLine
 10
72.1250004768
 20
99.7150036836
 30
0.0
 11
72.1250004768
 21
98.9652040744
 31
0.0
  0
ARC
  5
298
330
1F
100
AcDbEntity
  8
0
  6
Continuous
 62
     7
370
    25
100
AcDbCircle
 10
72.1750000175
 20
98.9652038215
 30
0.0
 40
0.0499999950000074
100
AcDbArc
 50
179.9999999504
 51
258.4630409672
  0
ARC
  5
299
330
1F
100
AcDbEntity
  8
0
  6
Continuous
 62
     7
370
    25
100
AcDbCircle
 10
72.1600000166
 20
98.891719137
 30
0.0
 40
0.0249999975000148
100
AcDbArc
 50
344.3090402466
 51
78.4630354664
  0
ARC
  5
29A
330
1F
100
AcDbEntity
  8
0
  6
Continuous
 62
     7
370
    25
100
AcDbCircle
 10
72.1359316619
 20
98.8984803628
 30
0.0
 40
0.049999994999991
100
AcDbArc
 50
275.8375897921
 51
344.3090250343
  0
ARC
  5
29B
330
1F
100
AcDbEntity
  8
0
  6
Continuous
 62
     7
370
    25
100
AcDbCircle
 10
72.140000021
 20
98.858687799
 30
0.0
 40
0.0099999990000015
100
AcDbArc
 50
180.0
 51
275.8375885099
  0
LINE
  5
29C
330
1F
100
AcDbEntity
  8
0
  6
Continuous
 62
     7
370
    25
100
AcDbLine
 10
72.1299998164
 20
98.8586875939
 30
0.0
 11
72.1299998164
 21
98.8652038717
 31
0.0
  0
ARC
  5
29D
330
1F
100
AcDbEntity
  8
0
  6
Continuous
 62
     7
370
    25
100
AcDbCircle
 10
72.120000023
 20
98.8652038315
 30
0.0
 40
0.0099999990000157
100
AcDbArc
 50
0.0
 51
90.0
  0
LINE
  5
29E
330
1F
100
AcDbEntity
  8
0
  6
Continuous
 62
     7
370
    25
100
AcDbLine
 10
72.1199996471
 20
98.875204041
 30
0.0
 11
72.0250002742
 21
98.875204041
 31
0.0
  0
LINE
  5
29F
330
1F
100
AcDbEntity
  8
0
  6
Continuous
 62
     7
370
    25
100
AcDbLine
 10
72.0250002742
 20
98.875204041
 30
0.0
 11
72.0250002742
 21
99.8650002623
 31
0.0
  0
LINE
  5
2A0
330
1F
100
AcDbEntity
  8
0
  6
Continuous
 62
     7
370
    25
100
AcDbLine
 10
72.0250002742
 20
99.8650002623
 30
0.0
 11
72.2250006795
 21
99.8650002623
 31
0.0
  0
ARC
  5
2A1
330
1F
100
AcDbEntity
  8
0
  6
Continuous
 62
     7
370
    25
100
AcDbCircle
 10
72.2250000125
 20
99.9149999975
 30
0.0
 40
0.0499999950000074
100
AcDbArc
 50
270.0
 51
0.0
  0
LINE
  5
2A2
330
1F
100
AcDbEntity
  8
0
  6
Continuous
 62
     7
370
    25
100
AcDbLine
 10
116.7749993205
 20
99.8650002623
 30
0.0
 11
116.9749997258
 21
99.8650002623
 31
0.0
  0
LINE
  5
2A3
330
1F
100
AcDbEntity
  8
0
  6
Continuous
 62
     7
370
    25
100
AcDbLine
 10
116.9749997258
 20
99.8650002623
 30
0.0
 11
116.9749997258
 21
98.875204041
 31
0.0
  0
LINE
  5
2A4
330
1F
100
AcDbEntity
  8
0
  6
Continuous
 62
     7
370
    25
100
AcDbLine
 10
116.9749997258
 20
98.875204041
 30
0.0
 11
116.8800003529
 21
98.875204041
 31
0.0
  0
ARC
  5
2A5
330
1F
100
AcDbEntity
  8
0
  6
Continuous
 62
     7
370
    25
100
AcDbCircle
 10
116.879999977
 20
98.8652038315
 30
0.0
 40
0.0099999990000157
100
AcDbArc
 50
90.0
 51
180.0
  0
LINE
  5
2A6
330
1F
100
AcDbEntity
  8
0
  6
Continuous
 62
     7
370
    25
100
AcDbLine
 10
116.8700001836
 20
98.8652038717
 30
0.0
 11
116.8700001836
 21
98.8586875939
 31
0.0
  0
ARC
  5
2A7
330
1F
100
AcDbEntity
  8
0
  6
Continuous
 62
     7
370
    25
100
AcDbCircle
 10
116.859999979
 20
98.858687799
 30
0.0
 40
0.0099999989999873
100
AcDbArc
 50
264.1624114901
 51
0.0
  0
ARC
  5
2A8
330
1F
100
AcDbEntity
  8
0
  6
Continuous
 62
     7
370
    25
100
AcDbCircle
 10
116.8640683381
 20
98.8984803628
 30
0.0
 40
0.0499999950000047
100
AcDbArc
 50
195.6909749657
 51
264.1624102079
  0
ARC
  5
2A9
330
1F
100
AcDbEntity
  8
0
  6
Continuous
 62
     7
370
    25
100
AcDbCircle
 10
116.8399999834
 20
98.891719137
 30
0.0
 40
0.0249999975000148
100
AcDbArc
 50
101.5369645336
 51
195.6909597534
  0
ARC
  5
2AA
330
1F
100
AcDbEntity
  8
0
  6
Continuous
 62
     7
370
    25
100
AcDbCircle
 10
116.8249999825
 20
98.9652038215
 30
0.0
 40
0.0499999950000074
100
AcDbArc
 50
281.5369590328
 51
0.0000000496
  0
LINE
  5
2AB
330
1F
100
AcDbEntity
  8
0
  6
Continuous
 62
     7
370
    25
100
AcDbLine
 10
116.8749995232
 20
98.9652040744
 30
0.0
 11
116.8749995232
 21
99.7150036836
 31
0.0
  0
ARC
  5
2AC
330
1F
100
AcDbEntity
  8
0
  6
Continuous
 62
     7
370
    25
100
AcDbCircle
 10
116.825001677
 20
99.714591364
 30
0.0
 40
0.0499999950000004
100
AcDbArc
 50
0.4717140425
 51
90.4717141174
  0
LINE
  5
2AD
330
1F
100
AcDbEntity
  8
0
  6
Continuous
 62
     7
370
    25
100
AcDbLine
 10
116.824590385
 20
99.7645902777
 30
0.0
 11
116.4750002027
 21
99.7645902777
 31
0.0
  0
ARC
  5
2AE
330
1F
100
AcDbEntity
  8
0
  6
Continuous
 62
     7
370
    25
100
AcDbCircle
 10
116.4990734656
 20
99.8745810737
 30
0.0
 40
0.0499999950000134
100
AcDbArc
 50
241.2185451989
 51
271.0618139954
  0
LINE
  5
2AF
330
1F
100
AcDbEntity
  8
0
  6
Continuous
 62
     7
370
    25
100
AcDbLine
 10
116.4999998808
 20
99.8245898032
 30
0.0
 11
116.6000000834
 21
99.8245898032
 31
0.0
  0
ARC
  5
2B0
330
1F
100
AcDbEntity
  8
0
  6
Continuous
 62
     7
370
    25
100
AcDbCircle
 10
116.6009265594
 20
99.8745810737
 30
0.0
 40
0.049999995000013
100
AcDbArc
 50
268.9381860045
 51
348.9525750542
  0
LINE
  5
2B1
330
1F
100
AcDbEntity
  8
0
  6
Continuous
 62
     7
370
    25
100
AcDbLine
 10
116.6499994397
 20
99.8650002623
 30
0.0
 11
116.6499994397
 21
99.8899999404
 31
0.0
  0
LINE
  5
2B2
330
1F
100
AcDbEntity
  8
0
  6
Continuous
 62
     7
370
    25
100
AcDbLine
 10
116.6499994397
 20
101.39
 30
0.0
 11
116.7249999642
 21
101.39
 31
0.0
  0
LINE
  5
2B3
330
1F
100
AcDbEntity
  8
0
  6
Continuous
 62
     7
370
    25
100
AcDbLine
 10
116.7249999642
 20
101.39
 30
0.0
 11
116.7249999642
 21
99.9149996185
 31
0.0
  0
ARC
  5
2B4
330
1F
100
AcDbEntity
  8
0
  6
Continuous
 62
     7
370
    25
100
AcDbCircle
 10
116.7749999875
 20
99.9149999975
 30
0.0
 40
0.0499999950000074
100
AcDbArc
 50
180.0
 51
270.0
  0
LINE
  5
2B5
330
1F
100
AcDbEntity
  8
0
  6
Continuous
 62
     7
370
    25
100
AcDbLine
 10
257.1999995589
 20
214.421115706
 30
0.0
 11
257.1999995589
 21
212.5400005674
 31
0.0
  0
LINE
  5
2B6
330
1F
100
AcDbEntity
  8
0
  6
Continuous
 62
     7
370
    25
100
AcDbLine
 10
257.1999995589
 20
259.2210112906
 30
0.0
 11
257.1999995589
 21
215.6589879489
 31
0.0
  0
LINE
  5
2B7
330
1F
100
AcDbEntity
  8
0
  6
Continuous
 62
     7
370
    25
100
AcDbLine
 10
257.1999995589
 20
262.3400001621
 30
0.0
 11
257.1999995589
 21
260.4588835335
 31
0.0
  0
LINE
  5
2B8
330
1F
100
AcDbEntity
  8
0
  6
Continuous
 62
     7
370
    25
100
AcDbLine
 10
258.6999996185
 20
212.5400005674
 30
0.0
 11
258.6999996185
 21
262.3400001621
 31
0.0
  0
LINE
  5
2B9
330
1F
100
AcDbEntity
  8
0
  6
Continuous
 62
     7
370
    25
100
AcDbLine
 10
255.7500003457
 20
259.2150001621
 30
0.0
 11
257.2050018787
 21
259.2150001621
 31
0.0
  0
LINE
  5
2BA
330
1F
100
AcDbEntity
  8
0
  6
Continuous
 62
     7
370
    25
100
AcDbLine
 10
257.2050883055
 20
260.46499897
 30
0.0
 11
255.7500003457
 21
260.46499897
 31
0.0
  0
LINE
  5
2BB
330
1F
100
AcDbEntity
  8
0
  6
Continuous
 62
     7
370
    25
100
AcDbLine
 10
255.7500003457
 20
214.4150002694
 30
0.0
 11
257.2050883055
 21
214.4150002694
 31
0.0
  0
LINE
  5
2BC
330
1F
100
AcDbEntity
  8
0
  6
Continuous
 62
     7
370
    25
100
AcDbLine
 10
257.2050018787
 20
215.6649998224
 30
0.0
 11
255.7500003457
 21
215.6649998224
 31
0.0
  0
LINE
  5
2BD
330
1F
100
AcDbEntity
  8
0
  6
Continuous
 62
     7
370
    25
100
AcDbLine
 10
255.7500003457
 20
204.0150000548
 30
0.0
 11
257.5299172282
 21
204.0150000548
 31
0.0
  0
LINE
  5
2BE
330
1F
100
AcDbEntity
  8
0
  6
Continuous
 62
     7
370
    25
100
AcDbLine
 10
257.530042398
 20
205.2650003529
 30
0.0
 11
255.7500003457
 21
205.2650003529
 31
0.0
  0
LINE
  5
2BF
330
1F
100
AcDbEntity
  8
0
  6
Continuous
 62
     7
370
    25
100
AcDbLine
 10
257.5299172282
 20
204.0150000548
 30
0.0
 11
257.530042398
 21
204.0150000548
 31
0.0
  0
LINE
  5
2C0
330
1F
100
AcDbEntity
  8
0
  6
Continuous
 62
     7
370
    25
100
AcDbLine
 10
250.3865002275
 20
176.5650003052
 30
0.0
 11
250.3865002275
 21
176.6596405602
 31
0.0
  0
LINE
  5
2C1
330
1F
100
AcDbEntity
  8
0
  6
Continuous
 62
     7
370
    25
100
AcDbLine
 10
248.503500092
 20
176.6596405602
 30
0.0
 11
248.503500092
 21
176.5650003052
 31
0.0
  0
ARC
  5
2C2
330
1F
100
AcDbEntity
  8
0
  6
Continuous
 62
     7
370
    25
100
AcDbCircle
 10
250.3115
 20
176.565
 30
0.0
 40
0.0750000000000171
100
AcDbArc
 50
270.0
 51
0.0
  0
ARC
  5
2C3
330
1F
100
AcDbEntity
  8
0
  6
Continuous
 62
     7
370
    25
100
AcDbCircle
 10
248.5785
 20
176.565
 30
0.0
 40
0.0750000000000455
100
AcDbArc
 50
180.0
 51
270.0
  0
ARC
  5
2C4
330
1F
100
AcDbEntity
  8
0
  6
Continuous
 62
     7
370
    25
100
AcDbCircle
 10
250.3115
 20
176.6596408368
 30
0.0
 40
0.0749999999999886
100
AcDbArc
 50
0.0
 51
44.0751062253
  0
ARC
  5
2C5
330
1F
100
AcDbEntity
  8
0
  6
Continuous
 62
     7
370
    25
100
AcDbCircle
 10
248.5785
 20
176.6596408368
 30
0.0
 40
0.0750000000000455
100
AcDbArc
 50
135.9248937747
 51
180.0
  0
LINE
  5
2C6
330
1F
100
AcDbEntity
  8
0
  6
Continuous
 62
     7
370
    25
100
AcDbLine
 10
250.3653823018
 20
176.7118095255
 30
0.0
 11
250.0827966809
 21
177.0036696291
 31
0.0
  0
LINE
  5
2C7
330
1F
100
AcDbEntity
  8
0
  6
Continuous
 62
     7
370
    25
100
AcDbLine
 10
248.8072036386
 20
177.0036696291
 30
0.0
 11
248.5246180177
 21
176.7118095255
 31
0.0
  0
ARC
  5
2C8
330
1F
100
AcDbEntity
  8
0
  6
Continuous
 62
     7
370
    25
100
AcDbCircle
 10
250.0289145804
 20
176.9515
 30
0.0
 40
0.0750000000000171
100
AcDbArc
 50
44.0751062253
 51
90.0
  0
ARC
  5
2C9
330
1F
100
AcDbEntity
  8
0
  6
Continuous
 62
     7
370
    25
100
AcDbCircle
 10
248.8610854196
 20
176.9515
 30
0.0
 40
0.0750000000000171
100
AcDbArc
 50
90.0
 51
135.9248937747
  0
LINE
  5
2CA
330
1F
100
AcDbEntity
  8
0
  6
Continuous
 62
     7
370
    25
100
AcDbLine
 10
249.8606918931
 20
177.0265011883
 30
0.0
 11
249.8606918931
 21
177.1874992943
 31
0.0
  0
LINE
  5
2CB
330
1F
100
AcDbEntity
  8
0
  6
Continuous
 62
     7
370
    25
100
AcDbLine
 10
249.0293076813
 20
177.1874992943
 30
0.0
 11
249.0293076813
 21
177.0265011883
 31
0.0
  0
LINE
  5
2CC
330
1F
100
AcDbEntity
  8
0
  6
Continuous
 62
     7
370
    25
100
AcDbLine
 10
249.6909997046
 20
177.1874992943
 30
0.0
 11
249.6909997046
 21
178.1049995518
 31
0.0
  0
LINE
  5
2CD
330
1F
100
AcDbEntity
  8
0
  6
Continuous
 62
     7
370
    25
100
AcDbLine
 10
249.1989998698
 20
178.1049995518
 30
0.0
 11
249.1989998698
 21
177.1874992943
 31
0.0
  0
LINE
  5
2CE
330
1F
100
AcDbEntity
  8
0
  6
Continuous
 62
     7
370
    25
100
AcDbLine
 10
253.3413125753
 20
182.5049995279
 30
0.0
 11
253.3413125753
 21
272.4900006151
 31
0.0
  0
LINE
  5
2CF
330
1F
100
AcDbEntity
  8
0
  6
Continuous
 62
     7
370
    25
100
AcDbLine
 10
226.3000002682
 20
282.4900000191
 30
0.0
 11
226.3000002682
 21
272.7400003767
 31
0.0
  0
LINE
  5
2D0
330
1F
100
AcDbEntity
  8
0
  6
Continuous
 62
     7
370
    25
100
AcDbLine
 10
252.3000000596
 20
282.4900000191
 30
0.0
 11
226.3000002682
 21
282.4900000191
 31
0.0
  0
LINE
  5
2D1
330
1F
100
AcDbEntity
  8
0
  6
Continuous
 62
     7
370
    25
100
AcDbLine
 10
252.3000000596
 20
282.4900000191
 30
0.0
 11
252.3000000596
 21
272.7400003767
 31
0.0
  0
LINE
  5
2D2
330
1F
100
AcDbEntity
  8
0
  6
Continuous
 62
     7
370
    25
100
AcDbLine
 10
252.3000000596
 20
272.7400003767
 30
0.0
 11
226.3000002682
 21
272.7400003767
 31
0.0
  0
ARC
  5
2D3
330
1F
100
AcDbEntity
  8
0
  6
Continuous
 62
     7
370
    25
100
AcDbCircle
 10
249.899
 20
281.14
 30
0.0
 40
0.2000000000000455
100
AcDbArc
 50
270.0
 51
90.0
  0
LINE
  5
2D4
330
1F
100
AcDbEntity
  8
0
  6
Continuous
 62
     7
370
    25
100
AcDbLine
 10
246.2989999533
 20
281.3399999237
 30
0.0
 11
249.8989997983
 21
281.3399999237
 31
0.0
  0
ARC
  5
2D5
330
1F
100
AcDbEntity
  8
0
  6
Continuous
 62
     7
370
    25
100
AcDbCircle
 10
246.299
 20
281.14
 30
0.0
 40
0.2000000000000455
100
AcDbArc
 50
90.0
 51
270.0
  0
LINE
  5
2D6
330
1F
100
AcDbEntity
  8
0
  6
Continuous
 62
     7
370
    25
100
AcDbLine
 10
249.8989997983
 20
280.9399991131
 30
0.0
 11
246.2989999533
 21
280.9399991131
 31
0.0
  0
ARC
  5
2D7
330
1F
100
AcDbEntity
  8
0
  6
Continuous
 62
     7
370
    25
100
AcDbCircle
 10
249.899
 20
278.99
 30
0.0
 40
0.2000000000000455
100
AcDbArc
 50
270.0
 51
90.0
  0
LINE
  5
2D8
330
1F
100
AcDbEntity
  8
0
  6
Continuous
 62
     7
370
    25
100
AcDbLine
 10
246.2989999533
 20
279.190000782
 30
0.0
 11
249.8989997983
 21
279.190000782
 31
0.0
  0
ARC
  5
2D9
330
1F
100
AcDbEntity
  8
0
  6
Continuous
 62
     7
370
    25
100
AcDbCircle
 10
246.299
 20
278.99
 30
0.0
 40
0.2000000000000455
100
AcDbArc
 50
90.0
 51
270.0
  0
LINE
  5
2DA
330
1F
100
AcDbEntity
  8
0
  6
Continuous
 62
     7
370
    25
100
AcDbLine
 10
249.8989997983
 20
278.7899999714
 30
0.0
 11
246.2989999533
 21
278.7899999714
 31
0.0
  0
ARC
  5
2DB
330
1F
100
AcDbEntity
  8
0
  6
Continuous
 62
     7
370
    25
100
AcDbCircle
 10
249.899
 20
276.84
 30
0.0
 40
0.2000000000000455
100
AcDbArc
 50
270.0
 51
90.0
  0
LINE
  5
2DC
330
1F
100
AcDbEntity
  8
0
  6
Continuous
 62
     7
370
    25
100
AcDbLine
 10
246.2989999533
 20
277.0400016403
 30
0.0
 11
249.8989997983
 21
277.0400016403
 31
0.0
  0
ARC
  5
2DD
330
1F
100
AcDbEntity
  8
0
  6
Continuous
 62
     7
370
    25
100
AcDbCircle
 10
246.299
 20
276.84
 30
0.0
 40
0.2000000000000455
100
AcDbArc
 50
90.0
 51
270.0
  0
LINE
  5
2DE
330
1F
100
AcDbEntity
  8
0
  6
Continuous
 62
     7
370
    25
100
AcDbLine
 10
249.8989997983
 20
276.6400008297
 30
0.0
 11
246.2989999533
 21
276.6400008297
 31
0.0
  0
ARC
  5
2DF
330
1F
100
AcDbEntity
  8
0
  6
Continuous
 62
     7
370
    25
100
AcDbCircle
 10
249.899
 20
274.69
 30
0.0
 40
0.2000000000000455
100
AcDbArc
 50
270.0
 51
90.0
  0
LINE
  5
2E0
330
1F
100
AcDbEntity
  8
0
  6
Continuous
 62
     7
370
    25
100
AcDbLine
 10
246.2989999533
 20
274.8899995184
 30
0.0
 11
249.8989997983
 21
274.8899995184
 31
0.0
  0
ARC
  5
2E1
330
1F
100
AcDbEntity
  8
0
  6
Continuous
 62
     7
370
    25
100
AcDbCircle
 10
246.299
 20
274.69
 30
0.0
 40
0.2000000000000455
100
AcDbArc
 50
90.0
 51
270.0
  0
LINE
  5
2E2
330
1F
100
AcDbEntity
  8
0
  6
Continuous
 62
     7
370
    25
100
AcDbLine
 10
249.8989997983
 20
274.4899987078
 30
0.0
 11
246.2989999533
 21
274.4899987078
 31
0.0
  0
ARC
  5
2E3
330
1F
100
AcDbEntity
  8
0
  6
Continuous
 62
     7
370
    25
100
AcDbCircle
 10
234.301
 20
281.14
 30
0.0
 40
0.2000000000000455
100
AcDbArc
 50
270.0
 51
90.0
  0
LINE
  5
2E4
330
1F
100
AcDbEntity
  8
0
  6
Continuous
 62
     7
370
    25
100
AcDbLine
 10
233.5509999275
 20
281.3399999237
 30
0.0
 11
234.3009999573
 21
281.3399999237
 31
0.0
  0
ARC
  5
2E5
330
1F
100
AcDbEntity
  8
0
  6
Continuous
 62
     7
370
    25
100
AcDbCircle
 10
233.551
 20
281.14
 30
0.0
 40
0.2000000000000455
100
AcDbArc
 50
90.0
 51
270.0
  0
LINE
  5
2E6
330
1F
100
AcDbEntity
  8
0
  6
Continuous
 62
     7
370
    25
100
AcDbLine
 10
234.3009999573
 20
280.9399991131
 30
0.0
 11
233.5509999275
 21
280.9399991131
 31
0.0
  0
ARC
  5
2E7
330
1F
100
AcDbEntity
  8
0
  6
Continuous
 62
     7
370
    25
100
AcDbCircle
 10
234.301
 20
278.99
 30
0.0
 40
0.2000000000000455
100
AcDbArc
 50
270.0
 51
90.0
  0
LINE
  5
2E8
330
1F
100
AcDbEntity
  8
0
  6
Continuous
 62
     7
370
    25
100
AcDbLine
 10
233.5509999275
 20
279.190000782
 30
0.0
 11
234.3009999573
 21
279.190000782
 31
0.0
  0
ARC
  5
2E9
330
1F
100
AcDbEntity
  8
0
  6
Continuous
 62
     7
370
    25
100
AcDbCircle
 10
233.551
 20
278.99
 30
0.0
 40
0.2000000000000455
100
AcDbArc
 50
90.0
 51
270.0
  0
LINE
  5
2EA
330
1F
100
AcDbEntity
  8
0
  6
Continuous
 62
     7
370
    25
100
AcDbLine
 10
234.3009999573
 20
278.7899999714
 30
0.0
 11
233.5509999275
 21
278.7899999714
 31
0.0
  0
ARC
  5
2EB
330
1F
100
AcDbEntity
  8
0
  6
Continuous
 62
     7
370
    25
100
AcDbCircle
 10
234.301
 20
276.84
 30
0.0
 40
0.2000000000000455
100
AcDbArc
 50
270.0
 51
90.0
  0
LINE
  5
2EC
330
1F
100
AcDbEntity
  8
0
  6
Continuous
 62
     7
370
    25
100
AcDbLine
 10
233.5509999275
 20
277.0400016403
 30
0.0
 11
234.3009999573
 21
277.0400016403
 31
0.0
  0
ARC
  5
2ED
330
1F
100
AcDbEntity
  8
0
  6
Continuous
 62
     7
370
    25
100
AcDbCircle
 10
233.551
 20
276.84
 30
0.0
 40
0.2000000000000455
100
AcDbArc
 50
90.0
 51
270.0
  0
LINE
  5
2EE
330
1F
100
AcDbEntity
  8
0
  6
Continuous
 62
     7
370
    25
100
AcDbLine
 10
234.3009999573
 20
276.6400008297
 30
0.0
 11
233.5509999275
 21
276.6400008297
 31
0.0
  0
ARC
  5
2EF
330
1F
100
AcDbEntity
  8
0
  6
Continuous
 62
     7
370
    25
100
AcDbCircle
 10
234.301
 20
274.69
 30
0.0
 40
0.1999999999999886
100
AcDbArc
 50
270.0
 51
90.0
  0
LINE
  5
2F0
330
1F
100
AcDbEntity
  8
0
  6
Continuous
 62
     7
370
    25
100
AcDbLine
 10
233.5509999275
 20
274.8899995184
 30
0.0
 11
234.3009999573
 21
274.8899995184
 31
0.0
  0
ARC
  5
2F1
330
1F
100
AcDbEntity
  8
0
  6
Continuous
 62
     7
370
    25
100
AcDbCircle
 10
233.551
 20
274.69
 30
0.0
 40
0.2000000000000455
100
AcDbArc
 50
90.0
 51
270.0
  0
LINE
  5
2F2
330
1F
100
AcDbEntity
  8
0
  6
Continuous
 62
     7
370
    25
100
AcDbLine
 10
234.3009999573
 20
274.4899987078
 30
0.0
 11
233.5509999275
 21
274.4899987078
 31
0.0
  0
ARC
  5
2F3
330
1F
100
AcDbEntity
  8
0
  6
Continuous
 62
     7
370
    25
100
AcDbCircle
 10
228.701
 20
281.14
 30
0.0
 40
0.2000000000000455
100
AcDbArc
 50
90.0
 51
270.0
  0
LINE
  5
2F4
330
1F
100
AcDbEntity
  8
0
  6
Continuous
 62
     7
370
    25
100
AcDbLine
 10
232.301000002
 20
280.9399991131
 30
0.0
 11
228.7009997845
 21
280.9399991131
 31
0.0
  0
ARC
  5
2F5
330
1F
100
AcDbEntity
  8
0
  6
Continuous
 62
     7
370
    25
100
AcDbCircle
 10
232.301
 20
281.14
 30
0.0
 40
0.2000000000000455
100
AcDbArc
 50
270.0
 51
90.0
  0
LINE
  5
2F6
330
1F
100
AcDbEntity
  8
0
  6
Continuous
 62
     7
370
    25
100
AcDbLine
 10
228.7009997845
 20
281.3399999237
 30
0.0
 11
232.301000002
 21
281.3399999237
 31
0.0
  0
ARC
  5
2F7
330
1F
100
AcDbEntity
  8
0
  6
Continuous
 62
     7
370
    25
100
AcDbCircle
 10
228.701
 20
278.99
 30
0.0
 40
0.2000000000000455
100
AcDbArc
 50
90.0
 51
270.0
  0
LINE
  5
2F8
330
1F
100
AcDbEntity
  8
0
  6
Continuous
 62
     7
370
    25
100
AcDbLine
 10
232.301000002
 20
278.7899999714
 30
0.0
 11
228.7009997845
 21
278.7899999714
 31
0.0
  0
ARC
  5
2F9
330
1F
100
AcDbEntity
  8
0
  6
Continuous
 62
     7
370
    25
100
AcDbCircle
 10
232.301
 20
278.99
 30
0.0
 40
0.2000000000000455
100
AcDbArc
 50
270.0
 51
90.0
  0
LINE
  5
2FA
330
1F
100
AcDbEntity
  8
0
  6
Continuous
 62
     7
370
    25
100
AcDbLine
 10
228.7009997845
 20
279.190000782
 30
0.0
 11
232.301000002
 21
279.190000782
 31
0.0
  0
ARC
  5
2FB
330
1F
100
AcDbEntity
  8
0
  6
Continuous
 62
     7
370
    25
100
AcDbCircle
 10
228.701
 20
276.84
 30
0.0
 40
0.2000000000000455
100
AcDbArc
 50
90.0
 51
270.0
  0
LINE
  5
2FC
330
1F
100
AcDbEntity
  8
0
  6
Continuous
 62
     7
370
    25
100
AcDbLine
 10
232.301000002
 20
276.6400008297
 30
0.0
 11
228.7009997845
 21
276.6400008297
 31
0.0
  0
ARC
  5
2FD
330
1F
100
AcDbEntity
  8
0
  6
Continuous
 62
     7
370
    25
100
AcDbCircle
 10
232.301
 20
276.84
 30
0.0
 40
0.2000000000000455
100
AcDbArc
 50
270.0
 51
90.0
  0
LINE
  5
2FE
330
1F
100
AcDbEntity
  8
0
  6
Continuous
 62
     7
370
    25
100
AcDbLine
 10
228.7009997845
 20
277.0400016403
 30
0.0
 11
232.301000002
 21
277.0400016403
 31
0.0
  0
ARC
  5
2FF
330
1F
100
AcDbEntity
  8
0
  6
Continuous
 62
     7
370
    25
100
AcDbCircle
 10
228.701
 20
274.69
 30
0.0
 40
0.2000000000000455
100
AcDbArc
 50
90.0
 51
270.0
  0
LINE
  5
300
330
1F
100
AcDbEntity
  8
0
  6
Continuous
 62
     7
370
    25
100
AcDbLine
 10
232.301000002
 20
274.4899987078
 30
0.0
 11
228.7009997845
 21
274.4899987078
 31
0.0
  0
ARC
  5
301
330
1F
100
AcDbEntity
  8
0
  6
Continuous
 62
     7
370
    25
100
AcDbCircle
 10
232.301
 20
274.69
 30
0.0
 40
0.2000000000000455
100
AcDbArc
 50
270.0
 51
90.0
  0
LINE
  5
302
330
1F
100
AcDbEntity
  8
0
  6
Continuous
 62
     7
370
    25
100
AcDbLine
 10
228.7009997845
 20
274.8899995184
 30
0.0
 11
232.301000002
 21
274.8899995184
 31
0.0
  0
LINE
  5
303
330
1F
100
AcDbEntity
  8
0
  6
Continuous
 62
     7
370
    25
100
AcDbLine
 10
255.7500003457
 20
272.3399995661
 30
0.0
 11
253.3413125753
 21
272.3399995661
 31
0.0
  0
LINE
  5
304
330
1F
100
AcDbEntity
  8
0
  6
Continuous
 62
     7
370
    25
100
AcDbLine
 10
255.7500003457
 20
207.5399993753
 30
0.0
 11
255.7500003457
 21
272.3399995661
 31
0.0
  0
LINE
  5
305
330
1F
100
AcDbEntity
  8
0
  6
Continuous
 62
     7
370
    25
100
AcDbLine
 10
255.7500003457
 20
207.5399993753
 30
0.0
 11
253.3413125753
 21
207.5399993753
 31
0.0
  0
SPLINE
  5
306
330
1F
100
AcDbEntity
  8
0
  6
Continuous
 62
     7
370
    25
100
AcDbSpline
210
0.0
220
0.0
230
1.0
 70
     8
 71
     3
 72
    23
 73
    19
 74
     0
 42
0.000000001
 43
0.00000001
 40
0.0
 40
0.0
 40
0.0
 40
0.0
 40
0.0453206065134329
 40
0.122877237825014
 40
0.207165155680738
 40
0.268697100351717
 40
0.33200237854377
 40
0.3773325421454813
 40
0.4235948769448364
 40
0.4849842684514017
 40
0.5467250388190085
 40
0.6243135682131175
 40
0.6846786086046058
 40
0.7467262376229485
 40
0.8083069993527852
 40
0.872127248973856
 40
0.9554096300427146
 40
1.0
 40
1.0
 40
1.0
 40
1.0
 10
257.2050018787384
 20
215.6589879488945
 30
0.0
 10
257.2042218247865
 20
215.6599298482576
 30
0.0
 10
257.2021068735018
 20
215.6624836091394
 30
0.0
 10
257.2400099595124
 20
215.6167819392771
 30
0.0
 10
257.2989610551194
 20
215.5429816644323
 30
0.0
 10
257.3661170590942
 20
215.4526478900474
 30
0.0
 10
257.4229998973285
 20
215.3678045399664
 30
0.0
 10
257.4718982650259
 20
215.2813974045227
 30
0.0
 10
257.5133365398175
 20
215.1879682661678
 30
0.0
 10
257.5412022533785
 20
215.0722797173764
 30
0.0
 10
257.5287669305657
 20
214.9296967034065
 30
0.0
 10
257.4762400918273
 20
214.8034673041292
 30
0.0
 10
257.4117110328004
 20
214.6941618508991
 30
0.0
 10
257.3503805127764
 20
214.6055575058344
 30
0.0
 10
257.2916608613676
 20
214.527990862329
 30
0.0
 10
257.2382622392003
 20
214.4610864136727
 30
0.0
 10
257.2018416312036
 20
214.4172009149431
 30
0.0
 10
257.2042488772756
 20
214.4201035360661
 30
0.0
 10
257.2050883054733
 20
214.4211157059669
 30
0.0
  0
SPLINE
  5
307
330
1F
100
AcDbEntity
  8
0
  6
Continuous
 62
     7
370
    25
100
AcDbSpline
210
0.0
220
0.0
230
1.0
 70
     8
 71
     3
 72
    23
 73
    19
 74
     0
 42
0.000000001
 43
0.00000001
 40
0.0
 40
0.0
 40
0.0
 40
0.0
 40
0.0453206239876173
 40
0.122877277425296
 40
0.2071653883618761
 40
0.2686975695409564
 40
0.332002610973408
 40
0.3773322170955664
 40
0.4235945650930828
 40
0.4849846624946375
 40
0.5467250958437371
 40
0.6243133252460831
 40
0.6846789430702497
 40
0.7467260981646245
 40
0.8083068774628099
 40
0.8721273103710073
 40
0.9554096173215474
 40
1.0
 40
1.0
 40
1.0
 40
1.0
 10
257.2050018787384
 20
259.2210112905503
 30
0.0
 10
257.2042218239715
 20
259.2200696936774
 30
0.0
 10
257.2021068706111
 20
259.2175167530958
 30
0.0
 10
257.2400100085304
 20
259.2632178233395
 30
0.0
 10
257.2989611423439
 20
259.337018997306
 30
0.0
 10
257.3661168230546
 20
259.4273535470859
 30
0.0
 10
257.4229995975313
 20
259.5121961913109
 30
0.0
 10
257.4718985840959
 20
259.5986020143221
 30
0.0
 10
257.5133367177411
 20
259.6920314478816
 30
0.0
 10
257.5412021062257
 20
259.8077202762022
 30
0.0
 10
257.5287670632749
 20
259.9503034068788
 30
0.0
 10
257.4762394464405
 20
260.0765320497196
 30
0.0
 10
257.4117117536038
 20
260.1858388106837
 30
0.0
 10
257.3503801368404
 20
260.2744416766902
 30
0.0
 10
257.2916608312237
 20
260.3520082846062
 30
0.0
 10
257.2382623499427
 20
260.4189139580097
 30
0.0
 10
257.201841616032
 20
260.462798172913
 30
0.0
 10
257.2042488728766
 20
260.4598956647598
 30
0.0
 10
257.2050883054733
 20
260.4588835334778
 30
0.0
  0
LINE
  5
308
330
1F
100
AcDbEntity
  8
0
  6
Continuous
 62
     7
370
    25
100
AcDbLine
 10
257.9500003338
 20
212.5400005674
 30
0.0
 11
258.6999996185
 21
212.5400005674
 31
0.0
  0
LINE
  5
309
330
1F
100
AcDbEntity
  8
0
  6
Continuous
 62
     7
370
    25
100
AcDbLine
 10
257.1999995589
 20
212.5400005674
 30
0.0
 11
257.9500003338
 21
212.5400005674
 31
0.0
  0
LINE
  5
30A
330
1F
100
AcDbEntity
  8
0
  6
Continuous
 62
     7
370
    25
100
AcDbLine
 10
257.1999995589
 20
262.3400001621
 30
0.0
 11
258.6999996185
 21
262.3400001621
 31
0.0
  0
LINE
  5
30B
330
1F
100
AcDbEntity
  8
0
  6
Continuous
 62
     7
370
    25
100
AcDbLine
 10
255.7500003457
 20
181.3399999237
 30
0.0
 11
255.7500003457
 21
207.1400000548
 31
0.0
  0
LINE
  5
30C
330
1F
100
AcDbEntity
  8
0
  6
Continuous
 62
     7
370
    25
100
AcDbLine
 10
255.7500003457
 20
181.3399999237
 30
0.0
 11
252.7999995828
 21
181.3399999237
 31
0.0
  0
LINE
  5
30D
330
1F
100
AcDbEntity
  8
0
  6
Continuous
 62
     7
370
    25
100
AcDbLine
 10
255.7500003457
 20
207.1400000548
 30
0.0
 11
253.3413125753
 21
207.1400000548
 31
0.0
  0
LINE
  5
30E
330
1F
100
AcDbEntity
  8
0
  6
Continuous
 62
     7
370
    25
100
AcDbLine
 10
252.7999995828
 20
181.3399999237
 30
0.0
 11
252.7999995828
 21
182.5049995279
 31
0.0
  0
CIRCLE
  5
30F
330
1F
100
AcDbEntity
  8
0
  6
Continuous
 62
     7
370
    25
100
AcDbCircle
 10
257.95
 20
204.64
 30
0.0
 40
0.75
  0
LINE
  5
310
330
1F
100
AcDbEntity
  8
0
  6
Continuous
 62
     7
370
    25
100
AcDbLine
 10
250.6999997973
 20
177.2549985743
 30
0.0
 11
250.6999997973
 21
182.2549997663
 31
0.0
  0
LINE
  5
311
330
1F
100
AcDbEntity
  8
0
  6
Continuous
 62
     7
370
    25
100
AcDbLine
 10
250.6999997973
 20
177.2549985743
 30
0.0
 11
250.3499998331
 21
177.2549985743
 31
0.0
  0
LINE
  5
312
330
1F
100
AcDbEntity
  8
0
  6
Continuous
 62
     7
370
    25
100
AcDbLine
 10
250.3499998331
 20
177.2549985743
 30
0.0
 11
250.3499998331
 21
182.2549997663
 31
0.0
  0
LINE
  5
313
330
1F
100
AcDbEntity
  8
0
  6
Continuous
 62
     7
370
    25
100
AcDbLine
 10
255.7500003457
 20
282.4900000191
 30
0.0
 11
255.7500003457
 21
272.7400003767
 31
0.0
  0
LINE
  5
314
330
1F
100
AcDbEntity
  8
0
  6
Continuous
 62
     7
370
    25
100
AcDbLine
 10
255.7500003457
 20
282.4900000191
 30
0.0
 11
252.3000000596
 21
282.4900000191
 31
0.0
  0
LINE
  5
315
330
1F
100
AcDbEntity
  8
0
  6
Continuous
 62
     7
370
    25
100
AcDbLine
 10
255.7500003457
 20
272.7400003767
 30
0.0
 11
252.3000000596
 21
272.7400003767
 31
0.0
  0
LINE
  5
316
330
1F
100
AcDbEntity
  8
0
  6
Continuous
 62
     7
370
    25
100
AcDbLine
 10
252.3000000596
 20
272.7400003767
 30
0.0
 11
252.3000000596
 21
272.4900006151
 31
0.0
  0
LINE
  5
317
330
1F
100
AcDbEntity
  8
0
  6
Continuous
 62
     7
370
    25
100
AcDbLine
 10
252.3000000596
 20
182.5049995279
 30
0.0
 11
252.3000000596
 21
182.2549997663
 31
0.0
  0
LINE
  5
318
330
1F
100
AcDbEntity
  8
0
  6
Continuous
 62
     7
370
    25
100
AcDbLine
 10
224.2999999404
 20
182.2549997663
 30
0.0
 11
252.3000000596
 21
182.2549997663
 31
0.0
  0
LINE
  5
319
330
1F
100
AcDbEntity
  8
0
  6
Continuous
 62
     7
370
    25
100
AcDbLine
 10
224.2999999404
 20
182.2549997663
 30
0.0
 11
224.2999999404
 21
272.7400003767
 31
0.0
  0
LINE
  5
31A
330
1F
100
AcDbEntity
  8
0
  6
Continuous
 62
     7
370
    25
100
AcDbLine
 10
224.2999999404
 20
272.7400003767
 30
0.0
 11
252.3000000596
 21
272.7400003767
 31
0.0
  0
LINE
  5
31B
330
1F
100
AcDbEntity
  8
0
  6
Continuous
 62
     7
370
    25
100
AcDbLine
 10
250.2999997318
 20
178.1049995518
 30
0.0
 11
250.2999997318
 21
182.2450010872
 31
0.0
  0
LINE
  5
31C
330
1F
100
AcDbEntity
  8
0
  6
Continuous
 62
     7
370
    25
100
AcDbLine
 10
249.1549997211
 20
178.1049995518
 30
0.0
 11
250.2999997318
 21
178.1049995518
 31
0.0
  0
LINE
  5
31D
330
1F
100
AcDbEntity
  8
0
  6
Continuous
 62
     7
370
    25
100
AcDbLine
 10
248.4549997926
 20
177.4049996233
 30
0.0
 11
249.1549997211
 21
178.1049995518
 31
0.0
  0
LINE
  5
31E
330
1F
100
AcDbEntity
  8
0
  6
Continuous
 62
     7
370
    25
100
AcDbLine
 10
248.4549997926
 20
177.4049996233
 30
0.0
 11
232.7800000638
 21
177.4049996233
 31
0.0
  0
LINE
  5
31F
330
1F
100
AcDbEntity
  8
0
  6
Continuous
 62
     7
370
    25
100
AcDbLine
 10
232.7800000638
 20
177.695000062
 30
0.0
 11
232.7800000638
 21
177.4049996233
 31
0.0
  0
LINE
  5
320
330
1F
100
AcDbEntity
  8
0
  6
Continuous
 62
     7
370
    25
100
AcDbLine
 10
227.7799999893
 20
182.2450010872
 30
0.0
 11
250.2999997318
 21
182.2450010872
 31
0.0
  0
LINE
  5
321
330
1F
100
AcDbEntity
  8
0
  6
Continuous
 62
     7
370
    25
100
AcDbLine
 10
242.2000000805
 20
180.0949989653
 30
0.0
 11
245.800000298
 21
180.0949989653
 31
0.0
  0
ARC
  5
322
330
1F
100
AcDbEntity
  8
0
  6
Continuous
 62
     7
370
    25
100
AcDbCircle
 10
242.2
 20
179.895
 30
0.0
 40
0.2000000000000171
100
AcDbArc
 50
90.0
 51
270.0
  0
LINE
  5
323
330
1F
100
AcDbEntity
  8
0
  6
Continuous
 62
     7
370
    25
100
AcDbLine
 10
245.800000298
 20
179.6950011349
 30
0.0
 11
242.2000000805
 21
179.6950011349
 31
0.0
  0
ARC
  5
324
330
1F
100
AcDbEntity
  8
0
  6
Continuous
 62
     7
370
    25
100
AcDbCircle
 10
245.8
 20
179.895
 30
0.0
 40
0.2000000000000171
100
AcDbArc
 50
270.0
 51
90.0
  0
LINE
  5
325
330
1F
100
AcDbEntity
  8
0
  6
Continuous
 62
     7
370
    25
100
AcDbLine
 10
236.699999924
 20
180.0949989653
 30
0.0
 11
240.2999999553
 21
180.0949989653
 31
0.0
  0
ARC
  5
326
330
1F
100
AcDbEntity
  8
0
  6
Continuous
 62
     7
370
    25
100
AcDbCircle
 10
236.7
 20
179.895
 30
0.0
 40
0.2000000000000171
100
AcDbArc
 50
90.0
 51
270.0
  0
LINE
  5
327
330
1F
100
AcDbEntity
  8
0
  6
Continuous
 62
     7
370
    25
100
AcDbLine
 10
240.2999999553
 20
179.6950011349
 30
0.0
 11
236.699999924
 21
179.6950011349
 31
0.0
  0
ARC
  5
328
330
1F
100
AcDbEntity
  8
0
  6
Continuous
 62
     7
370
    25
100
AcDbCircle
 10
240.3
 20
179.895
 30
0.0
 40
0.2000000000000171
100
AcDbArc
 50
270.0
 51
90.0
  0
LINE
  5
329
330
1F
100
AcDbEntity
  8
0
  6
Continuous
 62
     7
370
    25
100
AcDbLine
 10
231.1999997675
 20
180.0949989653
 30
0.0
 11
234.7999999851
 21
180.0949989653
 31
0.0
  0
ARC
  5
32A
330
1F
100
AcDbEntity
  8
0
  6
Continuous
 62
     7
370
    25
100
AcDbCircle
 10
231.2
 20
179.895
 30
0.0
 40
0.2000000000000171
100
AcDbArc
 50
90.0
 51
270.0
  0
LINE
  5
32B
330
1F
100
AcDbEntity
  8
0
  6
Continuous
 62
     7
370
    25
100
AcDbLine
 10
234.7999999851
 20
179.6950011349
 30
0.0
 11
231.1999997675
 21
179.6950011349
 31
0.0
  0
ARC
  5
32C
330
1F
100
AcDbEntity
  8
0
  6
Continuous
 62
     7
370
    25
100
AcDbCircle
 10
234.8
 20
179.895
 30
0.0
 40
0.2000000000000171
100
AcDbArc
 50
270.0
 51
90.0
  0
LINE
  5
32D
330
1F
100
AcDbEntity
  8
0
  6
Continuous
 62
     7
370
    25
100
AcDbLine
 10
244.9500000656
 20
181.0950009918
 30
0.0
 11
248.5499999106
 21
181.0950009918
 31
0.0
  0
ARC
  5
32E
330
1F
100
AcDbEntity
  8
0
  6
Continuous
 62
     7
370
    25
100
AcDbCircle
 10
244.95
 20
180.895
 30
0.0
 40
0.2000000000000171
100
AcDbArc
 50
90.0
 51
270.0
  0
LINE
  5
32F
330
1F
100
AcDbEntity
  8
0
  6
Continuous
 62
     7
370
    25
100
AcDbLine
 10
248.5499999106
 20
180.6950001812
 30
0.0
 11
244.9500000656
 21
180.6950001812
 31
0.0
  0
ARC
  5
330
330
1F
100
AcDbEntity
  8
0
  6
Continuous
 62
     7
370
    25
100
AcDbCircle
 10
248.55
 20
180.895
 30
0.0
 40
0.2000000000000171
100
AcDbArc
 50
270.0
 51
90.0
  0
LINE
  5
331
330
1F
100
AcDbEntity
  8
0
  6
Continuous
 62
     7
370
    25
100
AcDbLine
 10
239.4500000022
 20
181.0950009918
 30
0.0
 11
243.0499999404
 21
181.0950009918
 31
0.0
  0
ARC
  5
332
330
1F
100
AcDbEntity
  8
0
  6
Continuous
 62
     7
370
    25
100
AcDbCircle
 10
239.45
 20
180.895
 30
0.0
 40
0.2000000000000171
100
AcDbArc
 50
90.0
 51
270.0
  0
LINE
  5
333
330
1F
100
AcDbEntity
  8
0
  6
Continuous
 62
     7
370
    25
100
AcDbLine
 10
243.0499999404
 20
180.6950001812
 30
0.0
 11
239.4500000022
 21
180.6950001812
 31
0.0
  0
ARC
  5
334
330
1F
100
AcDbEntity
  8
0
  6
Continuous
 62
     7
370
    25
100
AcDbCircle
 10
243.05
 20
180.895
 30
0.0
 40
0.2000000000000171
100
AcDbArc
 50
270.0
 51
90.0
  0
LINE
  5
335
330
1F
100
AcDbEntity
  8
0
  6
Continuous
 62
     7
370
    25
100
AcDbLine
 10
233.9500001252
 20
181.0950009918
 30
0.0
 11
237.5500000168
 21
181.0950009918
 31
0.0
  0
ARC
  5
336
330
1F
100
AcDbEntity
  8
0
  6
Continuous
 62
     7
370
    25
100
AcDbCircle
 10
233.95
 20
180.895
 30
0.0
 40
0.2000000000000171
100
AcDbArc
 50
90.0
 51
270.0
  0
LINE
  5
337
330
1F
100
AcDbEntity
  8
0
  6
Continuous
 62
     7
370
    25
100
AcDbLine
 10
237.5500000168
 20
180.6950001812
 30
0.0
 11
233.9500001252
 21
180.6950001812
 31
0.0
  0
ARC
  5
338
330
1F
100
AcDbEntity
  8
0
  6
Continuous
 62
     7
370
    25
100
AcDbCircle
 10
237.55
 20
180.895
 30
0.0
 40
0.2000000000000171
100
AcDbArc
 50
270.0
 51
90.0
  0
LINE
  5
339
330
1F
100
AcDbEntity
  8
0
  6
Continuous
 62
     7
370
    25
100
AcDbLine
 10
227.7799999893
 20
177.695000062
 30
0.0
 11
232.7800000638
 21
177.695000062
 31
0.0
  0
LINE
  5
33A
330
1F
100
AcDbEntity
  8
0
  6
Continuous
 62
     7
370
    25
100
AcDbLine
 10
227.7799999893
 20
182.2450010872
 30
0.0
 11
227.7799999893
 21
177.695000062
 31
0.0
  0
LINE
  5
33B
330
1F
100
AcDbEntity
  8
0
  6
Continuous
 62
     7
370
    25
100
AcDbLine
 10
250.2999997318
 20
182.2549997663
 30
0.0
 11
250.2999997318
 21
182.2450010872
 31
0.0
  0
LINE
  5
33C
330
1F
100
AcDbEntity
  8
0
  6
Continuous
 62
     7
370
    25
100
AcDbLine
 10
227.7799999893
 20
182.2549997663
 30
0.0
 11
227.7799999893
 21
182.2450010872
 31
0.0
  0
LINE
  5
33D
330
1F
100
AcDbEntity
  8
0
  6
Continuous
 62
     7
370
    25
100
AcDbLine
 10
248.5784998715
 20
176.4899997807
 30
0.0
 11
250.3114997029
 21
176.4899997807
 31
0.0
  0
LINE
  5
33E
330
1F
100
AcDbEntity
  8
0
  6
Continuous
 62
     7
370
    25
100
AcDbLine
 10
248.8610854924
 20
177.0265011883
 30
0.0
 11
250.0289148271
 21
177.0265011883
 31
0.0
  0
ARC
  5
33F
330
1F
100
AcDbEntity
  8
0
  6
Continuous
 62
     7
370
    25
100
AcDbCircle
 10
231.325
 20
177.74
 30
0.0
 40
1.250000000000026
100
AcDbArc
 50
182.0630938545
 51
357.9369061455
  0
ARC
  5
340
330
1F
100
AcDbEntity
  8
0
  6
Continuous
 62
     7
370
    25
100
AcDbCircle
 10
231.325
 20
177.74
 30
0.0
 40
0.8503812145668254
100
AcDbArc
 50
183.0333630072
 51
356.9666369928
  0
ARC
  5
341
330
1F
100
AcDbEntity
  8
0
  6
Continuous
 62
     7
370
    25
100
AcDbCircle
 10
231.325
 20
177.74
 30
0.0
 40
0.375000000000021
100
AcDbArc
 50
186.8921025794
 51
353.1078974206
  0
LINE
  5
342
330
1F
100
AcDbEntity
  8
0
  6
Continuous
 62
     7
370
    25
100
AcDbLine
 10
249.0293076813
 20
177.1874992943
 30
0.0
 11
249.8606918931
 21
177.1874992943
 31
0.0
  0
LINE
  5
343
330
1F
100
AcDbEntity
  8
0
  6
Continuous
 62
     7
370
    25
100
AcDbLine
 10
252.3249997377
 20
182.5049995279
 30
0.0
 11
252.3249997377
 21
272.4900006151
 31
0.0
  0
LINE
  5
344
330
1F
100
AcDbEntity
  8
0
  6
Continuous
 62
     7
370
    25
100
AcDbLine
 10
253.314795959
 20
182.5049995279
 30
0.0
 11
253.314795959
 21
272.4900006151
 31
0.0
  0
LINE
  5
345
330
1F
100
AcDbEntity
  8
0
  6
Continuous
 62
     7
370
    25
100
AcDbLine
 10
253.314795959
 20
272.4900006151
 30
0.0
 11
252.3249997377
 21
272.4900006151
 31
0.0
  0
LINE
  5
346
330
1F
100
AcDbEntity
  8
0
  6
Continuous
 62
     7
370
    25
100
AcDbLine
 10
253.314795959
 20
182.5049995279
 30
0.0
 11
252.3249997377
 21
182.5049995279
 31
0.0
  0
LINE
  5
347
330
1F
100
AcDbEntity
  8
0
  6
Continuous
 62
     7
370
    25
100
AcDbLine
 10
253.3247961283
 20
182.5049995279
 30
0.0
 11
253.3247961283
 21
272.4900006151
 31
0.0
  0
LINE
  5
348
330
1F
100
AcDbEntity
  8
0
  6
Continuous
 62
     7
370
    25
100
AcDbLine
 10
253.3247961283
 20
272.4900006151
 30
0.0
 11
253.314795959
 21
272.4900006151
 31
0.0
  0
LINE
  5
349
330
1F
100
AcDbEntity
  8
0
  6
Continuous
 62
     7
370
    25
100
AcDbLine
 10
253.3247961283
 20
182.5049995279
 30
0.0
 11
253.314795959
 21
182.5049995279
 31
0.0
  0
LINE
  5
34A
330
1F
100
AcDbEntity
  8
0
  6
Continuous
 62
     7
370
    25
100
AcDbLine
 10
253.3313124061
 20
182.5049995279
 30
0.0
 11
253.3313124061
 21
272.4900006151
 31
0.0
  0
LINE
  5
34B
330
1F
100
AcDbEntity
  8
0
  6
Continuous
 62
     7
370
    25
100
AcDbLine
 10
253.3313124061
 20
272.4900006151
 30
0.0
 11
253.3247961283
 21
272.4900006151
 31
0.0
  0
LINE
  5
34C
330
1F
100
AcDbEntity
  8
0
  6
Continuous
 62
     7
370
    25
100
AcDbLine
 10
253.3313124061
 20
182.5049995279
 30
0.0
 11
253.3247961283
 21
182.5049995279
 31
0.0
  0
LINE
  5
34D
330
1F
100
AcDbEntity
  8
0
  6
Continuous
 62
     7
370
    25
100
AcDbLine
 10
253.3413125753
 20
272.4900006151
 30
0.0
 11
253.3313124061
 21
272.4900006151
 31
0.0
  0
LINE
  5
34E
330
1F
100
AcDbEntity
  8
0
  6
Continuous
 62
     7
370
    25
100
AcDbLine
 10
253.3413125753
 20
182.5049995279
 30
0.0
 11
253.3313124061
 21
182.5049995279
 31
0.0
  0
LINE
  5
34F
330
1F
100
AcDbEntity
  8
0
  6
Continuous
 62
     7
370
    25
100
AcDbLine
 10
252.2750003815
 20
182.5049995279
 30
0.0
 11
252.2750003815
 21
272.4900006151
 31
0.0
  0
LINE
  5
350
330
1F
100
AcDbEntity
  8
0
  6
Continuous
 62
     7
370
    25
100
AcDbLine
 10
252.3249997377
 20
272.4900006151
 30
0.0
 11
252.2750003815
 21
272.4900006151
 31
0.0
  0
LINE
  5
351
330
1F
100
AcDbEntity
  8
0
  6
Continuous
 62
     7
370
    25
100
AcDbLine
 10
252.3249997377
 20
182.5049995279
 30
0.0
 11
252.2750003815
 21
182.5049995279
 31
0.0
  0
LINE
  5
352
330
1F
100
AcDbEntity
  8
0
  6
Continuous
 62
     7
370
    25
100
AcDbLine
 10
250.8
 20
182.5049995279
 30
0.0
 11
250.8
 21
272.4900006151
 31
0.0
  0
LINE
  5
353
330
1F
100
AcDbEntity
  8
0
  6
Continuous
 62
     7
370
    25
100
AcDbLine
 10
252.2750003815
 20
272.4900006151
 30
0.0
 11
250.8
 21
272.4900006151
 31
0.0
  0
LINE
  5
354
330
1F
100
AcDbEntity
  8
0
  6
Continuous
 62
     7
370
    25
100
AcDbLine
 10
252.2750003815
 20
182.5049995279
 30
0.0
 11
250.8
 21
182.5049995279
 31
0.0
  0
LINE
  5
355
330
1F
100
AcDbEntity
  8
0
  6
Continuous
 62
     8
370
    25
100
AcDbLine
 10
248.503500092
 20
176.5650003052
 30
0.0
 11
250.3865002275
 21
176.5650003052
 31
0.0
  0
LINE
  5
356
330
1F
100
AcDbEntity
  8
0
  6
Continuous
 62
     8
370
    25
100
AcDbLine
 10
248.503500092
 20
176.6596405602
 30
0.0
 11
250.3865002275
 21
176.6596405602
 31
0.0
  0
LINE
  5
357
330
1F
100
AcDbEntity
  8
0
  6
Continuous
 62
     8
370
    25
100
AcDbLine
 10
248.5246180177
 20
176.7118095255
 30
0.0
 11
250.3653823018
 21
176.7118095255
 31
0.0
  0
LINE
  5
358
330
1F
100
AcDbEntity
  8
0
  6
Continuous
 62
     8
370
    25
100
AcDbLine
 10
248.8072036386
 20
177.0036696291
 30
0.0
 11
250.0827966809
 21
177.0036696291
 31
0.0
  0
ENDSEC
  0
SECTION
  2
OBJECTS
  0
DICTIONARY
  5
C
330
0
100
AcDbDictionary
281
     1
  3
ACAD_GROUP
350
D
  3
ACAD_LAYOUT
350
1A
  3
ACAD_MLINESTYLE
350
17
  3
ACAD_PLOTSETTINGS
350
19
  3
ACAD_PLOTSTYLENAME
350
E
  3
ACAD_SCALELIST
350
47
  0
DICTIONARY
  5
D
102
{ACAD_REACTORS
330
C
102
}
330
C
100
AcDbDictionary
281
     1
  0
DICTIONARY
  5
1A
102
{ACAD_REACTORS
330
C
102
}
330
C
100
AcDbDictionary
281
     1
  3
Layout1
350
1E
  3
Layout2
350
26
  3
Model
350
22
  0
DICTIONARY
  5
17
102
{ACAD_REACTORS
330
C
102
}
330
C
100
AcDbDictionary
281
     1
  3
Standard
350
18
  0
DICTIONARY
  5
19
102
{ACAD_REACTORS
330
C
102
}
330
C
100
AcDbDictionary
281
     1
  0
ACDBDICTIONARYWDFLT
  5
E
102
{ACAD_REACTORS
330
C
102
}
330
C
100
AcDbDictionary
281
     1
  3
Normal
350
F
100
AcDbDictionaryWithDefault
340
F
  0
DICTIONARY
  5
47
102
{ACAD_REACTORS
330
C
102
}
330
C
100
AcDbDictionary
281
     1
  3
A0
350
48
  3
A1
350
49
  3
A2
350
4A
  3
A3
350
4B
  3
A4
350
4C
  3
A5
350
4D
  3
A6
350
4E
  3
A7
350
4F
  3
A8
350
50
  3
A9
350
51
  3
B0
350
52
  3
B1
350
53
  3
B2
350
54
  3
B3
350
55
  3
B4
350
56
  3
B5
350
57
  3
B6
350
58
  3
B7
350
59
  3
B8
350
5A
  3
B9
350
5B
  3
C0
350
5C
  3
C1
350
5D
  3
C2
350
5E
  3
C3
350
5F
  3
C4
350
60
  3
C5
350
61
  3
C6
350
62
  3
C7
350
63
  3
C8
350
64
  3
C9
350
65
  3
D0
350
66
  3
D1
350
67
  3
D2
350
68
  0
LAYOUT
  5
1E
102
{ACAD_REACTORS
330
1A
102
}
330
1A
100
AcDbPlotSettings
  1

  2
none_device
  4

  6

 40
0.0
 41
0.0
 42
0.0
 43
0.0
 44
0.0
 45
0.0
 46
0.0
 47
0.0
 48
0.0
 49
0.0
140
0.0
141
0.0
142
1.0
143
1.0
 70
   688
 72
     1
 73
     0
 74
     5
  7

 75
    16
147
1.0
148
0.0
149
0.0
100
AcDbLayout
  1
Layout1
 70
     1
 71
     1
 10
0.0
 20
0.0
 11
420.0
 21
297.0
 12
0.0
 22
0.0
 32
0.0
 14
1.0000000000E+20
 24
1.0000000000E+20
 34
1.0000000000E+20
 15
-1.0000000000E+20
 25
-1.0000000000E+20
 35
-1.0000000000E+20
146
0.0
 13
0.0
 23
0.0
 33
0.0
 16
1.0
 26
0.0
 36
0.0
 17
0.0
 27
1.0
 37
0.0
 76
     0
330
1B
  0
LAYOUT
  5
26
102
{ACAD_REACTORS
330
1A
102
}
330
1A
100
AcDbPlotSettings
  1

  2
none_device
  4

  6

 40
0.0
 41
0.0
 42
0.0
 43
0.0
 44
0.0
 45
0.0
 46
0.0
 47
0.0
 48
0.0
 49
0.0
140
0.0
141
0.0
142
1.0
143
1.0
 70
   688
 72
     1
 73
     0
 74
     5
  7

 75
    16
147
1.0
148
0.0
149
0.0
100
AcDbLayout
  1
Layout2
 70
     1
 71
     2
 10
0.0
 20
0.0
 11
0.0
 21
0.0
 12
0.0
 22
0.0
 32
0.0
 14
0.0
 24
0.0
 34
0.0
 15
0.0
 25
0.0
 35
0.0
146
0.0
 13
0.0
 23
0.0
 33
0.0
 16
1.0
 26
0.0
 36
0.0
 17
0.0
 27
1.0
 37
0.0
 76
     0
330
23
  0
LAYOUT
  5
22
102
{ACAD_REACTORS
330
1A
102
}
330
1A
100
AcDbPlotSettings
  1

  2
none_device
  4
Letter_(8.50_x_11.00_Inches)
  6

 40
6.35
 41
6.35
 42
6.35000508
 43
6.35000508
 44
215.9
 45
279.4
 46
0.0
 47
0.0
 48
0.0
 49
0.0
140
0.0
141
0.0
142
1.0
143
1.0
 70
  1712
 72
     1
 73
     0
 74
     0
  7

 75
     0
147
1.0
148
0.0
149
0.0
100
AcDbLayout
  1
Model
 70
     1
 71
     0
 10
0.0
 20
0.0
 11
420.0
 21
297.0
 12
0.0
 22
0.0
 32
0.0
 14
0.0
 24
0.0
 34
0.0
 15
420.0
 25
297.0
 35
0.0
146
0.0
 13
0.0
 23
0.0
 33
0.0
 16
1.0
 26
0.0
 36
0.0
 17
0.0
 27
1.0
 37
0.0
 76
     0
330
1F
331
29
  0
MLINESTYLE
  5
18
102
{ACAD_REACTORS
330
17
102
}
330
17
100
AcDbMlineStyle
  2
Standard
 70
     0
  3

 62
   256
 51
90.0
 52
90.0
 71
     2
 49
0.5
 62
   256
  6
BYLAYER
 49
-0.5
 62
   256
  6
BYLAYER
  0
ACDBPLACEHOLDER
  5
F
102
{ACAD_REACTORS
330
E
102
}
330
E
  0
SCALE
  5
48
102
{ACAD_REACTORS
330
47
102
}
330
47
100
AcDbScale
 70
     0
300
1:1
140
1.0
141
1.0
290
     1
  0
SCALE
  5
49
102
{ACAD_REACTORS
330
47
102
}
330
47
100
AcDbScale
 70
     0
300
1:2
140
1.0
141
2.0
290
     0
  0
SCALE
  5
4A
102
{ACAD_REACTORS
330
47
102
}
330
47
100
AcDbScale
 70
     0
300
1:4
140
1.0
141
4.0
290
     0
  0
SCALE
  5
4B
102
{ACAD_REACTORS
330
47
102
}
330
47
100
AcDbScale
 70
     0
300
1:5
140
1.0
141
5.0
290
     0
  0
SCALE
  5
4C
102
{ACAD_REACTORS
330
47
102
}
330
47
100
AcDbScale
 70
     0
300
1:8
140
1.0
141
8.0
290
     0
  0
SCALE
  5
4D
102
{ACAD_REACTORS
330
47
102
}
330
47
100
AcDbScale
 70
     0
300
1:10
140
1.0
141
10.0
290
     0
  0
SCALE
  5
4E
102
{ACAD_REACTORS
330
47
102
}
330
47
100
AcDbScale
 70
     0
300
1:16
140
1.0
141
16.0
290
     0
  0
SCALE
  5
4F
102
{ACAD_REACTORS
330
47
102
}
330
47
100
AcDbScale
 70
     0
300
1:20
140
1.0
141
20.0
290
     0
  0
SCALE
  5
50
102
{ACAD_REACTORS
330
47
102
}
330
47
100
AcDbScale
 70
     0
300
1:30
140
1.0
141
30.0
290
     0
  0
SCALE
  5
51
102
{ACAD_REACTORS
330
47
102
}
330
47
100
AcDbScale
 70
     0
300
1:40
140
1.0
141
40.0
290
     0
  0
SCALE
  5
52
102
{ACAD_REACTORS
330
47
102
}
330
47
100
AcDbScale
 70
     0
300
1:50
140
1.0
141
50.0
290
     0
  0
SCALE
  5
53
102
{ACAD_REACTORS
330
47
102
}
330
47
100
AcDbScale
 70
     0
300
1:100
140
1.0
141
100.0
290
     0
  0
SCALE
  5
54
102
{ACAD_REACTORS
330
47
102
}
330
47
100
AcDbScale
 70
     0
300
2:1
140
2.0
141
1.0
290
     0
  0
SCALE
  5
55
102
{ACAD_REACTORS
330
47
102
}
330
47
100
AcDbScale
 70
     0
300
4:1
140
4.0
141
1.0
290
     0
  0
SCALE
  5
56
102
{ACAD_REACTORS
330
47
102
}
330
47
100
AcDbScale
 70
     0
300
8:1
140
8.0
141
1.0
290
     0
  0
SCALE
  5
57
102
{ACAD_REACTORS
330
47
102
}
330
47
100
AcDbScale
 70
     0
300
10:1
140
10.0
141
1.0
290
     0
  0
SCALE
  5
58
102
{ACAD_REACTORS
330
47
102
}
330
47
100
AcDbScale
 70
     0
300
100:1
140
100.0
141
1.0
290
     0
  0
SCALE
  5
59
102
{ACAD_REACTORS
330
47
102
}
330
47
100
AcDbScale
 70
     0
300
1/128" = 1'-0"
140
0.0078125
141
12.0
290
     0
  0
SCALE
  5
5A
102
{ACAD_REACTORS
330
47
102
}
330
47
100
AcDbScale
 70
     0
300
1/64" = 1'-0"
140
0.015625
141
12.0
290
     0
  0
SCALE
  5
5B
102
{ACAD_REACTORS
330
47
102
}
330
47
100
AcDbScale
 70
     0
300
1/32" = 1'-0"
140
0.03125
141
12.0
290
     0
  0
SCALE
  5
5C
102
{ACAD_REACTORS
330
47
102
}
330
47
100
AcDbScale
 70
     0
300
1/16" = 1'-0"
140
0.0625
141
12.0
290
     0
  0
SCALE
  5
5D
102
{ACAD_REACTORS
330
47
102
}
330
47
100
AcDbScale
 70
     0
300
3/32" = 1'-0"
140
0.09375
141
12.0
290
     0
  0
SCALE
  5
5E
102
{ACAD_REACTORS
330
47
102
}
330
47
100
AcDbScale
 70
     0
300
1/8" = 1'-0"
140
0.125
141
12.0
290
     0
  0
SCALE
  5
5F
102
{ACAD_REACTORS
330
47
102
}
330
47
100
AcDbScale
 70
     0
300
3/16" = 1'-0"
140
0.1875
141
12.0
290
     0
  0
SCALE
  5
60
102
{ACAD_REACTORS
330
47
102
}
330
47
100
AcDbScale
 70
     0
300
1/4" = 1'-0"
140
0.25
141
12.0
290
     0
  0
SCALE
  5
61
102
{ACAD_REACTORS
330
47
102
}
330
47
100
AcDbScale
 70
     0
300
3/8" = 1'-0"
140
0.375
141
12.0
290
     0
  0
SCALE
  5
62
102
{ACAD_REACTORS
330
47
102
}
330
47
100
AcDbScale
 70
     0
300
1/2" = 1'-0"
140
0.5
141
12.0
290
     0
  0
SCALE
  5
63
102
{ACAD_REACTORS
330
47
102
}
330
47
100
AcDbScale
 70
     0
300
3/4" = 1'-0"
140
0.75
141
12.0
290
     0
  0
SCALE
  5
64
102
{ACAD_REACTORS
330
47
102
}
330
47
100
AcDbScale
 70
     0
300
1" = 1'-0"
140
1.0
141
12.0
290
     0
  0
SCALE
  5
65
102
{ACAD_REACTORS
330
47
102
}
330
47
100
AcDbScale
 70
     0
300
1-1/2" = 1'-0"
140
1.5
141
12.0
290
     0
  0
SCALE
  5
66
102
{ACAD_REACTORS
330
47
102
}
330
47
100
AcDbScale
 70
     0
300
3" = 1'-0"
140
3.0
141
12.0
290
     0
  0
SCALE
  5
67
102
{ACAD_REACTORS
330
47
102
}
330
47
100
AcDbScale
 70
     0
300
6" = 1'-0"
140
6.0
141
12.0
290
     0
  0
SCALE
  5
68
102
{ACAD_REACTORS
330
47
102
}
330
47
100
AcDbScale
 70
     0
300
1'-0" = 1'-0"
140
12.0
141
12.0
290
     0
  0
ENDSEC
  0
EOF
