  0
SECTION
  2
HEADER
  9
$ACADVER
  1
AC1015
  9
$ACADMAINTVER
 70
     6
  9
$DWGCODEPAGE
  3
ANSI_1252
  9
$INSBASE
 10
0.0
 20
0.0
 30
0.0
  9
$EXTMIN
 10
0.0
 20
0.0
 30
0.0
  9
$EXTMAX
 10
420.0
 20
297.0
 30
0.0
  9
$LIMMIN
 10
0.0
 20
0.0
  9
$LIMMAX
 10
420.0
 20
297.0
  9
$ORTHOMODE
 70
     0
  9
$REGENMODE
 70
     1
  9
$FILLMODE
 70
     1
  9
$QTEXTMODE
 70
     0
  9
$MIRRTEXT
 70
     1
  9
$LTSCALE
 40
1.0
  9
$ATTMODE
 70
     1
  9
$TEXTSIZE
 40
3.5
  9
$TRACEWID
 40
1.0
  9
$TEXTSTYLE
  7
Standard
  9
$CLAYER
  8
0
  9
$CELTYPE
  6
ByLayer
  9
$CECOLOR
 62
   256
  9
$CELTSCALE
 40
1.0
  9
$DISPSILH
 70
     0
  9
$DIMSCALE
 40
1.0
  9
$DIMASZ
 40
3.0
  9
$DIMEXO
 40
1.0
  9
$DIMDLI
 40
3.75
  9
$DIMRND
 40
0.0
  9
$DIMDLE
 40
0.0
  9
$DIMEXE
 40
1.0
  9
$DIMTP
 40
0.0
  9
$DIMTM
 40
0.0
  9
$DIMTXT
 40
3.5
  9
$DIMCEN
 40
2.5
  9
$DIMTSZ
 40
0.0
  9
$DIMTOL
 70
     0
  9
$DIMLIM
 70
     0
  9
$DIMTIH
 70
     1
  9
$DIMTOH
 70
     1
  9
$DIMSE1
 70
     0
  9
$DIMSE2
 70
     0
  9
$DIMTAD
 70
     1
  9
$DIMZIN
 70
     0
  9
$DIMBLK
  1

  9
$DIMASO
 70
     1
  9
$DIMSHO
 70
     1
  9
$DIMPOST
  1

  9
$DIMAPOST
  1

  9
$DIMALT
 70
     0
  9
$DIMALTD
 70
     3
  9
$DIMALTF
 40
0.0393700787
  9
$DIMLFAC
 40
20.0
  9
$DIMTOFL
 70
     1
  9
$DIMTVP
 40
0.0
  9
$DIMTIX
 70
     0
  9
$DIMSOXD
 70
     0
  9
$DIMSAH
 70
     0
  9
$DIMBLK1
  1

  9
$DIMBLK2
  1

  9
$DIMSTYLE
  2
ISO-25
  9
$DIMCLRD
 70
     0
  9
$DIMCLRE
 70
     0
  9
$DIMCLRT
 70
     0
  9
$DIMTFAC
 40
1.0
  9
$DIMGAP
 40
1.524
  9
$DIMJUST
 70
     0
  9
$DIMSD1
 70
     0
  9
$DIMSD2
 70
     0
  9
$DIMTOLJ
 70
     0
  9
$DIMTZIN
 70
     0
  9
$DIMALTZ
 70
     0
  9
$DIMALTTZ
 70
     0
  9
$DIMUPT
 70
     0
  9
$DIMDEC
 70
     1
  9
$DIMTDEC
 70
     1
  9
$DIMALTU
 70
     2
  9
$DIMALTTD
 70
     3
  9
$DIMTXSTY
  7
Standard
  9
$DIMAUNIT
 70
     0
  9
$DIMADEC
 70
     1
  9
$DIMALTRND
 40
0.0
  9
$DIMAZIN
 70
     0
  9
$DIMDSEP
 70
    44
  9
$DIMATFIT
 70
     3
  9
$DIMFRAC
 70
     0
  9
$DIMLDRBLK
  1

  9
$DIMLUNIT
 70
     2
  9
$DIMLWD
 70
    -2
  9
$DIMLWE
 70
    -2
  9
$DIMTMOVE
 70
     0
  9
$LUNITS
 70
     2
  9
$LUPREC
 70
     1
  9
$SKETCHINC
 40
1.0
  9
$FILLETRAD
 40
10.0
  9
$AUNITS
 70
     0
  9
$AUPREC
 70
     1
  9
$MENU
  1
.
  9
$ELEVATION
 40
0.0
  9
$PELEVATION
 40
0.0
  9
$THICKNESS
 40
0.0
  9
$LIMCHECK
 70
     0
  9
$CHAMFERA
 40
0.0
  9
$CHAMFERB
 40
0.0
  9
$CHAMFERC
 40
0.0
  9
$CHAMFERD
 40
0.0
  9
$SKPOLY
 70
     0
  9
$TDCREATE
 40
2459516.357533333
  9
$TDUCREATE
 40
2459516.2742
  9
$TDUPDATE
 40
2459516.357533912
  9
$TDUUPDATE
 40
2459516.274200579
  9
$TDINDWG
 40
0.0000000116
  9
$TDUSRTIMER
 40
0.0000000116
  9
$USRTIMER
 70
     1
  9
$ANGBASE
 50
0.0
  9
$ANGDIR
 70
     0
  9
$PDMODE
 70
     0
  9
$PDSIZE
 40
-1.0
  9
$PLINEWID
 40
0.0
  9
$SPLFRAME
 70
     0
  9
$SPLINETYPE
 70
     6
  9
$SPLINESEGS
 70
     8
  9
$HANDSEED
  5
355
  9
$SURFTAB1
 70
     6
  9
$SURFTAB2
 70
     6
  9
$SURFTYPE
 70
     6
  9
$SURFU
 70
     6
  9
$SURFV
 70
     6
  9
$UCSBASE
  2

  9
$UCSNAME
  2

  9
$UCSORG
 10
0.0
 20
0.0
 30
0.0
  9
$UCSXDIR
 10
1.0
 20
0.0
 30
0.0
  9
$UCSYDIR
 10
0.0
 20
1.0
 30
0.0
  9
$UCSORTHOREF
  2

  9
$UCSORTHOVIEW
 70
     0
  9
$UCSORGTOP
 10
0.0
 20
0.0
 30
0.0
  9
$UCSORGBOTTOM
 10
0.0
 20
0.0
 30
0.0
  9
$UCSORGLEFT
 10
0.0
 20
0.0
 30
0.0
  9
$UCSORGRIGHT
 10
0.0
 20
0.0
 30
0.0
  9
$UCSORGFRONT
 10
0.0
 20
0.0
 30
0.0
  9
$UCSORGBACK
 10
0.0
 20
0.0
 30
0.0
  9
$PUCSBASE
  2

  9
$PUCSNAME
  2

  9
$PUCSORG
 10
0.0
 20
0.0
 30
0.0
  9
$PUCSXDIR
 10
1.0
 20
0.0
 30
0.0
  9
$PUCSYDIR
 10
0.0
 20
1.0
 30
0.0
  9
$PUCSORTHOREF
  2

  9
$PUCSORTHOVIEW
 70
     0
  9
$PUCSORGTOP
 10
0.0
 20
0.0
 30
0.0
  9
$PUCSORGBOTTOM
 10
0.0
 20
0.0
 30
0.0
  9
$PUCSORGLEFT
 10
0.0
 20
0.0
 30
0.0
  9
$PUCSORGRIGHT
 10
0.0
 20
0.0
 30
0.0
  9
$PUCSORGFRONT
 10
0.0
 20
0.0
 30
0.0
  9
$PUCSORGBACK
 10
0.0
 20
0.0
 30
0.0
  9
$USERI1
 70
     0
  9
$USERI2
 70
     0
  9
$USERI3
 70
     0
  9
$USERI4
 70
     0
  9
$USERI5
 70
     0
  9
$USERR1
 40
0.0
  9
$USERR2
 40
0.0
  9
$USERR3
 40
0.0
  9
$USERR4
 40
0.0
  9
$USERR5
 40
0.0
  9
$WORLDVIEW
 70
     1
  9
$SHADEDGE
 70
     3
  9
$SHADEDIF
 70
    70
  9
$TILEMODE
 70
     1
  9
$MAXACTVP
 70
    64
  9
$PINSBASE
 10
0.0
 20
0.0
 30
0.0
  9
$PLIMCHECK
 70
     0
  9
$PEXTMIN
 10
1.0000000000E+20
 20
1.0000000000E+20
 30
1.0000000000E+20
  9
$PEXTMAX
 10
-1.0000000000E+20
 20
-1.0000000000E+20
 30
-1.0000000000E+20
  9
$PLIMMIN
 10
0.0
 20
0.0
  9
$PLIMMAX
 10
420.0
 20
297.0
  9
$UNITMODE
 70
     0
  9
$VISRETAIN
 70
     1
  9
$PLINEGEN
 70
     0
  9
$PSLTSCALE
 70
     1
  9
$TREEDEPTH
 70
  3020
  9
$CMLSTYLE
  2
Standard
  9
$CMLJUST
 70
     0
  9
$CMLSCALE
 40
20.0
  9
$PROXYGRAPHICS
 70
     1
  9
$MEASUREMENT
 70
     1
  9
$CELWEIGHT
370
    -1
  9
$ENDCAPS
280
     0
  9
$JOINSTYLE
280
     0
  9
$LWDISPLAY
290
     1
  9
$INSUNITS
 70
     4
  9
$HYPERLINKBASE
  1

  9
$STYLESHEET
  1

  9
$XEDIT
290
     1
  9
$CEPSNTYPE
380
     0
  9
$PSTYLEMODE
290
     1
  9
$FINGERPRINTGUID
  2
{2533A1E3-811E-4E71-88DF-E5EEE8046736}
  9
$VERSIONGUID
  2
{FAEB1C32-E019-11D5-929B-00C0DF256EC4}
  9
$EXTNAMES
290
     1
  9
$PSVPSCALE
 40
0.0
  9
$OLESTARTUP
290
     0
  0
ENDSEC
  0
SECTION
  2
CLASSES
  0
CLASS
  1
ACDBDICTIONARYWDFLT
  2
AcDbDictionaryWithDefault
  3
ObjectDBX Classes
 90
        0
280
     0
281
     0
  0
CLASS
  1
VISUALSTYLE
  2
AcDbVisualStyle
  3
ObjectDBX Classes
 90
     4095
280
     0
281
     0
  0
CLASS
  1
MATERIAL
  2
AcDbMaterial
  3
ObjectDBX Classes
 90
     1153
280
     0
281
     0
  0
CLASS
  1
SCALE
  2
AcDbScale
  3
ObjectDBX Classes
 90
     1153
280
     0
281
     0
  0
CLASS
  1
TABLESTYLE
  2
AcDbTableStyle
  3
ObjectDBX Classes
 90
     4095
280
     0
281
     0
  0
CLASS
  1
MLEADERSTYLE
  2
AcDbMLeaderStyle
  3
ACDB_MLEADERSTYLE_CLASS
 90
     4095
280
     0
281
     0
  0
CLASS
  1
SUN
  2
AcDbSun
  3
SCENEOE
 90
     1153
280
     0
281
     0
  0
CLASS
  1
ACDBPLACEHOLDER
  2
AcDbPlaceHolder
  3
ObjectDBX Classes
 90
        0
280
     0
281
     0
  0
CLASS
  1
LAYOUT
  2
AcDbLayout
  3
ObjectDBX Classes
 90
        0
280
     0
281
     0
  0
ENDSEC
  0
SECTION
  2
TABLES
  0
TABLE
  2
VPORT
  5
8
330
0
100
AcDbSymbolTable
 70
     1
  0
VPORT
  5
29
330
8
100
AcDbSymbolTableRecord
100
AcDbViewportTableRecord
  2
*Active
 70
     0
 10
0.0
 20
0.0
 11
1.0
 21
1.0
 12
210.0
 22
148.5
 13
0.0
 23
0.0
 14
10.0
 24
10.0
 15
10.0
 25
10.0
 16
0.0
 26
0.0
 36
1.0
 17
0.0
 27
0.0
 37
0.0
 40
297.0
 41
1.4141414141
 42
50.0
 43
0.0
 44
0.0
 50
0.0
 51
0.0
 71
     0
 72
  2000
 73
     1
 74
     3
 75
     0
 76
     0
 77
     0
 78
     0
281
     0
 65
     1
110
0.0
120
0.0
130
0.0
111
1.0
121
0.0
131
0.0
112
0.0
122
1.0
132
0.0
 79
     0
146
0.0
  0
ENDTAB
  0
TABLE
  2
LTYPE
  5
5
330
0
100
AcDbSymbolTable
 70
     6
  0
LTYPE
  5
14
330
5
100
AcDbSymbolTableRecord
100
AcDbLinetypeTableRecord
  2
ByBlock
 70
     0
  3

 72
    65
 73
     0
 40
0.0
  0
LTYPE
  5
15
330
5
100
AcDbSymbolTableRecord
100
AcDbLinetypeTableRecord
  2
ByLayer
 70
     0
  3

 72
    65
 73
     0
 40
0.0
  0
LTYPE
  5
16
330
5
100
AcDbSymbolTableRecord
100
AcDbLinetypeTableRecord
  2
Continuous
 70
     0
  3
Solid line
 72
    65
 73
     0
 40
0.0
  0
LTYPE
  5
6E
330
5
100
AcDbSymbolTableRecord
100
AcDbLinetypeTableRecord
  2
HIDDEN
 70
     0
  3
Hidden __ __ __ __ __ __ __ __ __ __ __ __ __ __
 72
    65
 73
     2
 40
1.905
 49
1.27
 74
     0
 49
-0.635
 74
     0
  0
LTYPE
  5
6F
330
5
100
AcDbSymbolTableRecord
100
AcDbLinetypeTableRecord
  2
PHANTOM
 70
     0
  3
Phantom ______  __  __  ______  __  __  ______
 72
    65
 73
     6
 40
12.7
 49
6.35
 74
     0
 49
-1.27
 74
     0
 49
1.27
 74
     0
 49
-1.27
 74
     0
 49
1.27
 74
     0
 49
-1.27
 74
     0
  0
LTYPE
  5
70
330
5
100
AcDbSymbolTableRecord
100
AcDbLinetypeTableRecord
  2
CENTER
 70
     0
  3
Center ____ _ ____ _ ____ _ ____ _ ____ _ ____
 72
    65
 73
     4
 40
10.16
 49
6.35
 74
     0
 49
-1.27
 74
     0
 49
1.27
 74
     0
 49
-1.27
 74
     0
  0
LTYPE
  5
71
330
5
100
AcDbSymbolTableRecord
100
AcDbLinetypeTableRecord
  2
CENTERX2
 70
     0
  3
Center (2x) ________  __  ________  __  _____
 72
    65
 73
     4
 40
20.32
 49
12.7
 74
     0
 49
-2.54
 74
     0
 49
2.54
 74
     0
 49
-2.54
 74
     0
  0
LTYPE
  5
72
330
5
100
AcDbSymbolTableRecord
100
AcDbLinetypeTableRecord
  2
DOT2
 70
     0
  3
Dot (.5x) ........................................
 72
    65
 73
     2
 40
0.635
 49
0.0
 74
     0
 49
-0.635
 74
     0
  0
ENDTAB
  0
TABLE
  2
LAYER
  5
2
330
0
100
AcDbSymbolTable
 70
     6
  0
LAYER
  5
10
330
2
100
AcDbSymbolTableRecord
100
AcDbLayerTableRecord
  2
0
 70
     0
 62
     7
  6
Continuous
370
    -3
390
F
  0
LAYER
  5
73
330
2
100
AcDbSymbolTableRecord
100
AcDbLayerTableRecord
  2
SLD-0
 70
     0
 62
   179
  6
Continuous
370
    -3
390
F
  0
LAYER
  5
74
330
2
100
AcDbSymbolTableRecord
100
AcDbLayerTableRecord
  2
50DISEGNO
 70
     0
 62
     1
  6
Continuous
370
    -3
390
F
  0
LAYER
  5
75
330
2
100
AcDbSymbolTableRecord
100
AcDbLayerTableRecord
  2
SLD-DEFPOINTS
 70
     0
 62
    35
  6
Continuous
370
    -3
390
F
  0
LAYER
  5
76
330
2
100
AcDbSymbolTableRecord
100
AcDbLayerTableRecord
  2
250_CARTIGLIO
 70
     0
 62
   230
  6
Continuous
370
    -3
390
F
  0
LAYER
  5
77
330
2
100
AcDbSymbolTableRecord
100
AcDbLayerTableRecord
  2
80_QUOTE
 70
     0
 62
   179
  6
Continuous
370
    -3
390
F
  0
ENDTAB
  0
TABLE
  2
STYLE
  5
3
330
0
100
AcDbSymbolTable
 70
     1
  0
STYLE
  5
11
330
3
100
AcDbSymbolTableRecord
100
AcDbTextStyleTableRecord
  2
Standard
 70
     0
 40
0.0
 41
1.0
 50
0.0
 71
     0
 42
3.5
  3
txt
  4

  0
ENDTAB
  0
TABLE
  2
VIEW
  5
6
330
0
100
AcDbSymbolTable
 70
     0
  0
ENDTAB
  0
TABLE
  2
UCS
  5
7
330
0
100
AcDbSymbolTable
 70
     0
  0
ENDTAB
  0
TABLE
  2
APPID
  5
9
330
0
100
AcDbSymbolTable
 70
     1
  0
APPID
  5
12
330
9
100
AcDbSymbolTableRecord
100
AcDbRegAppTableRecord
  2
ACAD
 70
     0
  0
ENDTAB
  0
TABLE
  2
DIMSTYLE
  5
A
330
0
100
AcDbSymbolTable
 70
     1
100
AcDbDimStyleTable
  0
DIMSTYLE
105
27
330
A
100
AcDbSymbolTableRecord
100
AcDbDimStyleTableRecord
  2
ISO-25
 70
     0
 41
2.5
 42
0.625
 43
3.75
 44
1.25
 73
     0
 74
     0
 77
     1
 78
     8
140
2.5
141
2.5
143
0.0393700787
147
0.625
171
     3
172
     1
178
     0
271
     2
272
     2
274
     3
278
    44
283
     0
284
     8
340
11
  0
ENDTAB
  0
TABLE
  2
BLOCK_RECORD
  5
1
330
0
100
AcDbSymbolTable
 70
     1
  0
BLOCK_RECORD
  5
1F
330
1
100
AcDbSymbolTableRecord
100
AcDbBlockTableRecord
  2
*Model_Space
340
22
  0
BLOCK_RECORD
  5
1B
330
1
100
AcDbSymbolTableRecord
100
AcDbBlockTableRecord
  2
*Paper_Space
340
1E
  0
BLOCK_RECORD
  5
23
330
1
100
AcDbSymbolTableRecord
100
AcDbBlockTableRecord
  2
*Paper_Space0
340
26
  0
ENDTAB
  0
ENDSEC
  0
SECTION
  2
BLOCKS
  0
BLOCK
  5
20
330
1F
100
AcDbEntity
  8
0
100
AcDbBlockBegin
  2
*Model_Space
 70
     0
 10
0.0
 20
0.0
 30
0.0
  3
*Model_Space
  1

  0
ENDBLK
  5
21
330
1F
100
AcDbEntity
  8
0
100
AcDbBlockEnd
  0
BLOCK
  5
1C
330
1B
100
AcDbEntity
 67
     1
  8
0
100
AcDbBlockBegin
  2
*Paper_Space
 70
     0
 10
0.0
 20
0.0
 30
0.0
  3
*Paper_Space
  1

  0
ENDBLK
  5
1D
330
1B
100
AcDbEntity
 67
     1
  8
0
100
AcDbBlockEnd
  0
BLOCK
  5
24
330
23
100
AcDbEntity
  8
0
100
AcDbBlockBegin
  2
*Paper_Space0
 70
     0
 10
0.0
 20
0.0
 30
0.0
  3
*Paper_Space0
  1

  0
ENDBLK
  5
25
330
23
100
AcDbEntity
  8
0
100
AcDbBlockEnd
  0
ENDSEC
  0
SECTION
  2
ENTITIES
  0
LINE
  5
78
330
1F
100
AcDbEntity
  8
0
  6
Continuous
 62
     7
370
    25
100
AcDbLine
 10
324.1267766574
 20
110.1403006771
 30
0.0
 11
351.6685852283
 21
94.2407530206
 31
0.0
  0
LINE
  5
79
330
1F
100
AcDbEntity
  8
0
  6
Continuous
 62
     7
370
    25
100
AcDbLine
 10
326.4126288988
 20
110.552710183
 30
0.0
 11
324.8767155528
 21
111.4393740845
 31
0.0
  0
LINE
  5
7A
330
1F
100
AcDbEntity
  8
0
  6
Continuous
 62
     7
370
    25
100
AcDbLine
 10
350.4185750291
 20
96.694372465
 30
0.0
 11
326.8764697181
 21
110.2849405776
 31
0.0
  0
LINE
  5
7B
330
1F
100
AcDbEntity
  8
0
  6
Continuous
 62
     7
370
    25
100
AcDbLine
 10
352.4185241236
 20
95.5398264279
 30
0.0
 11
350.8824632636
 21
96.4265754874
 31
0.0
  0
LINE
  5
7C
330
1F
100
AcDbEntity
  8
0
  6
Continuous
 62
     7
370
    25
100
AcDbLine
 10
351.518948111
 20
97.3501290543
 30
0.0
 11
350.4007985421
 21
96.7046350479
 31
0.0
  0
LINE
  5
7D
330
1F
100
AcDbEntity
  8
0
  6
Continuous
 62
     7
370
    25
100
AcDbLine
 10
351.650899357
 20
95.9829654791
 30
0.0
 11
352.1438973661
 21
96.2675671718
 31
0.0
  0
LINE
  5
7E
330
1F
100
AcDbEntity
  8
0
  6
Continuous
 62
     7
370
    25
100
AcDbLine
 10
327.5126721817
 20
111.2086571613
 30
0.0
 11
326.3945226127
 21
110.5631631548
 31
0.0
  0
LINE
  5
7F
330
1F
100
AcDbEntity
  8
0
  6
Continuous
 62
     7
370
    25
100
AcDbLine
 10
327.6446234277
 20
109.841493586
 30
0.0
 11
328.1376214367
 21
110.1260952787
 31
0.0
  0
LINE
  5
80
330
1F
100
AcDbEntity
  8
0
  6
Continuous
 62
     7
370
    25
100
AcDbLine
 10
324.3704644672
 20
157.5470636801
 30
0.0
 11
324.3704644672
 21
116.8833315792
 31
0.0
  0
LINE
  5
81
330
1F
100
AcDbEntity
  8
0
  6
Continuous
 62
     7
370
    25
100
AcDbLine
 10
325.8704644837
 20
155.7743285582
 30
0.0
 11
325.8704644837
 21
157.5470636801
 31
0.0
  0
LINE
  5
82
330
1F
100
AcDbEntity
  8
0
  6
Continuous
 62
     7
370
    25
100
AcDbLine
 10
325.8704644837
 20
119.193381795
 30
0.0
 11
325.8704644837
 21
155.2370134643
 31
0.0
  0
LINE
  5
83
330
1F
100
AcDbEntity
  8
0
  6
Continuous
 62
     7
370
    25
100
AcDbLine
 10
325.8704644837
 20
116.8833315792
 30
0.0
 11
325.8704644837
 21
118.6560660927
 31
0.0
  0
LINE
  5
84
330
1F
100
AcDbEntity
  8
0
  6
Continuous
 62
     7
370
    25
100
AcDbLine
 10
326.3636237044
 20
156.9450404148
 30
0.0
 11
325.87046343
 21
156.6603450482
 31
0.0
  0
LINE
  5
85
330
1F
100
AcDbEntity
  8
0
  6
Continuous
 62
     7
370
    25
100
AcDbLine
 10
325.87046343
 20
155.2170088568
 30
0.0
 11
326.9885729594
 21
155.862479749
 31
0.0
  0
LINE
  5
86
330
1F
100
AcDbEntity
  8
0
  6
Continuous
 62
     7
370
    25
100
AcDbLine
 10
326.3636237044
 20
120.3640127383
 30
0.0
 11
325.87046343
 21
120.0793173717
 31
0.0
  0
LINE
  5
87
330
1F
100
AcDbEntity
  8
0
  6
Continuous
 62
     7
370
    25
100
AcDbLine
 10
325.87046343
 20
118.635980572
 30
0.0
 11
326.9885729594
 21
119.2814514641
 31
0.0
  0
LINE
  5
88
330
1F
100
AcDbEntity
  8
0
  6
Continuous
 62
     7
370
    25
100
AcDbLine
 10
357.3304780071
 20
151.0148648193
 30
0.0
 11
357.3304780071
 21
77.538438974
 31
0.0
  0
LINE
  5
89
330
1F
100
AcDbEntity
  8
0
  6
Continuous
 62
     7
370
    25
100
AcDbLine
 10
359.789104932
 20
75.3089581732
 30
0.0
 11
359.6197025232
 21
75.4131044996
 31
0.0
  0
SPLINE
  5
8A
330
1F
100
AcDbEntity
  8
0
  6
Continuous
 62
     7
370
    25
100
AcDbSpline
210
0.0
220
0.0
230
1.0
 70
     8
 71
     3
 72
    14
 73
    10
 74
     0
 42
0.000000001
 43
0.00000001
 40
0.0
 40
0.0
 40
0.0
 40
0.0
 40
0.1173698001112296
 40
0.2706438931306345
 40
0.4247620215896137
 40
0.5816299138948477
 40
0.7418716381723204
 40
0.9048644057547209
 40
1.0
 40
1.0
 40
1.0
 40
1.0
 10
360.0581640908255
 20
74.89703213519516
 30
0.0
 10
360.0581496907106
 20
74.91638187991323
 30
0.0
 10
360.0581164853788
 20
74.96100059986178
 30
0.0
 10
360.0394672080886
 20
75.02977370223834
 30
0.0
 10
360.0061215045162
 20
75.10154754204478
 30
0.0
 10
359.9577734873549
 20
75.16970341698848
 30
0.0
 10
359.8952810538865
 20
75.23337796978413
 30
0.0
 10
359.8305932157864
 20
75.28370280630884
 30
0.0
 10
359.7851217985303
 20
75.31118587824304
 30
0.0
 10
359.7683628873002
 20
75.32131501849571
 30
0.0
  0
LINE
  5
8B
330
1F
100
AcDbEntity
  8
0
  6
Continuous
 62
     7
370
    25
100
AcDbLine
 10
358.1779605149
 20
74.9069611742
 30
0.0
 11
358.1790716112
 21
74.8851118824
 31
0.0
  0
LINE
  5
8C
330
1F
100
AcDbEntity
  8
0
  6
Continuous
 62
     7
370
    25
100
AcDbLine
 10
360.0596576698
 20
74.8253759717
 30
0.0
 11
360.0596576698
 21
74.9026536023
 31
0.0
  0
LINE
  5
8D
330
1F
100
AcDbEntity
  8
0
  6
Continuous
 62
     7
370
    25
100
AcDbLine
 10
358.1766581773
 20
74.9026532982
 30
0.0
 11
358.1766581773
 21
74.8253756675
 31
0.0
  0
SPLINE
  5
8E
330
1F
100
AcDbEntity
  8
0
  6
Continuous
 62
     7
370
    25
100
AcDbSpline
210
0.0
220
0.0
230
1.0
 70
     8
 71
     3
 72
    32
 73
    28
 74
     0
 42
0.000000001
 43
0.00000001
 40
0.0
 40
0.0
 40
0.0
 40
0.0
 40
0.0204344703004392
 40
0.0601295327556056
 40
0.1000763108068567
 40
0.1407542232385051
 40
0.1823034917936827
 40
0.2245506981843301
 40
0.2671876383334542
 40
0.3099454264877562
 40
0.3526587071622198
 40
0.3952918339720336
 40
0.437852278306972
 40
0.4803629790452771
 40
0.5228570058689888
 40
0.5653672732395222
 40
0.6079194873100747
 40
0.6505507791171863
 40
0.6932964229689407
 40
0.7361851269873321
 40
0.7792238252798374
 40
0.8223664190031057
 40
0.865394684817197
 40
0.9079737299244718
 40
0.9497163626260291
 40
0.9904464743497786
 40
1.0
 40
1.0
 40
1.0
 40
1.0
 10
358.1790716112408
 20
74.80783181832307
 30
0.0
 10
358.1793350990062
 20
74.79483336448462
 30
0.0
 10
358.1801104259897
 20
74.75658471187161
 30
0.0
 10
358.1985182173831
 20
74.69421049195603
 30
0.0
 10
358.2324328402559
 20
74.62260345802862
 30
0.0
 10
358.2816698248932
 20
74.55468919837327
 30
0.0
 10
358.3447981982104
 20
74.49120336027285
 30
0.0
 10
358.4213649306557
 20
74.43317997847734
 30
0.0
 10
358.5100070877226
 20
74.38173280979751
 30
0.0
 10
358.6090302696102
 20
74.3378419639322
 30
0.0
 10
358.7165325901881
 20
74.30222333996309
 30
0.0
 10
358.8305932884778
 20
74.27538986220861
 30
0.0
 10
358.9492987824444
 20
74.25767282991374
 30
0.0
 10
359.0707142011557
 20
74.24929383466683
 30
0.0
 10
359.1928797762951
 20
74.2503497967914
 30
0.0
 10
359.3138279415758
 20
74.26082782936122
 30
0.0
 10
359.4316154547186
 20
74.28059147201445
 30
0.0
 10
359.5443576041832
 20
74.30941117538187
 30
0.0
 10
359.6502518241195
 20
74.34695706254242
 30
0.0
 10
359.747576372952
 20
74.39284273685392
 30
0.0
 10
359.8346671704278
 20
74.4465847459689
 30
0.0
 10
359.9098811477416
 20
74.5075942719832
 30
0.0
 10
359.9714131271646
 20
74.57501287928852
 30
0.0
 10
360.0181908532421
 20
74.64758245175516
 30
0.0
 10
360.0472839416733
 20
74.72356322194277
 30
0.0
 10
360.0603287428787
 20
74.78175359800368
 30
0.0
 10
360.0585096964303
 20
74.81368732795765
 30
0.0
 10
360.0581640908255
 20
74.81975450456133
 30
0.0
  0
LINE
  5
8F
330
1F
100
AcDbEntity
  8
0
  6
Continuous
 62
     7
370
    25
100
AcDbLine
 10
359.5338499197
 20
75.2022099733
 30
0.0
 11
359.5338499197
 21
75.3336714975
 31
0.0
  0
LINE
  5
90
330
1F
100
AcDbEntity
  8
0
  6
Continuous
 62
     7
370
    25
100
AcDbLine
 10
355.3669564338
 20
158.3355300096
 30
0.0
 11
355.3669564338
 21
150.3742573857
 31
0.0
  0
LINE
  5
91
330
1F
100
AcDbEntity
  8
0
  6
Continuous
 62
     7
370
    25
100
AcDbLine
 10
355.3669564338
 20
150.3742573857
 30
0.0
 11
324.289613114
 21
168.3148258085
 31
0.0
  0
LINE
  5
92
330
1F
100
AcDbEntity
  8
0
  6
Continuous
 62
     7
370
    25
100
AcDbLine
 10
324.289613114
 20
168.3148258085
 30
0.0
 11
324.289613114
 21
176.2760984323
 31
0.0
  0
LINE
  5
93
330
1F
100
AcDbEntity
  8
0
  6
Continuous
 62
     7
370
    25
100
AcDbLine
 10
324.289613114
 20
176.2760984323
 30
0.0
 11
355.3669564338
 21
158.3355300096
 31
0.0
  0
LINE
  5
94
330
1F
100
AcDbEntity
  8
0
  6
Continuous
 62
     7
370
    25
100
AcDbLine
 10
355.0487582642
 20
158.1517808347
 30
0.0
 11
324.6078112836
 21
175.7249654709
 31
0.0
  0
LINE
  5
95
330
1F
100
AcDbEntity
  8
0
  6
Continuous
 62
     7
370
    25
100
AcDbLine
 10
324.6078112836
 20
175.7249654709
 30
0.0
 11
324.6078112836
 21
168.4985774168
 31
0.0
  0
LINE
  5
96
330
1F
100
AcDbEntity
  8
0
  6
Continuous
 62
     7
370
    25
100
AcDbLine
 10
324.6078112836
 20
168.4985774168
 30
0.0
 11
355.0487582642
 21
150.9253927806
 31
0.0
  0
LINE
  5
97
330
1F
100
AcDbEntity
  8
0
  6
Continuous
 62
     7
370
    25
100
AcDbLine
 10
355.0487582642
 20
150.9253927806
 30
0.0
 11
355.0487582642
 21
158.1517808347
 31
0.0
  0
LINE
  5
98
330
1F
100
AcDbEntity
  8
0
  6
Continuous
 62
     7
370
    25
100
AcDbLine
 10
357.8064750312
 20
159.7438341193
 30
0.0
 11
326.7291317114
 21
177.684402542
 31
0.0
  0
LINE
  5
99
330
1F
100
AcDbEntity
  8
0
  6
Continuous
 62
     7
370
    25
100
AcDbLine
 10
355.3669564338
 20
158.3355300096
 30
0.0
 11
357.8064750312
 21
159.7438341193
 31
0.0
  0
LINE
  5
9A
330
1F
100
AcDbEntity
  8
0
  6
Continuous
 62
     7
370
    25
100
AcDbLine
 10
324.289613114
 20
176.2760984323
 30
0.0
 11
326.7291317114
 21
177.684402542
 31
0.0
  0
LINE
  5
9B
330
1F
100
AcDbEntity
  8
0
  6
Continuous
 62
     7
370
    25
100
AcDbLine
 10
357.8064750312
 20
151.7825614954
 30
0.0
 11
357.8064750312
 21
159.7438341193
 31
0.0
  0
LINE
  5
9C
330
1F
100
AcDbEntity
  8
0
  6
Continuous
 62
     7
370
    25
100
AcDbLine
 10
355.3669564338
 20
150.3742573857
 30
0.0
 11
357.8064750312
 21
151.7825614954
 31
0.0
  0
LINE
  5
9D
330
1F
100
AcDbEntity
  8
0
  6
Continuous
 62
     7
370
    25
100
AcDbLine
 10
324.6431672211
 20
175.0921420459
 30
0.0
 11
355.0487593179
 21
157.5393673497
 31
0.0
  0
LINE
  5
9E
330
1F
100
AcDbEntity
  8
0
  6
Continuous
 62
     7
370
    25
100
AcDbLine
 10
324.6431672211
 20
175.0921420459
 30
0.0
 11
324.6431672211
 21
175.6960931569
 31
0.0
  0
LINE
  5
9F
330
1F
100
AcDbEntity
  8
0
  6
Continuous
 62
     7
370
    25
100
AcDbLine
 10
324.7138780425
 20
174.3820575973
 30
0.0
 11
355.0487582642
 21
156.8701039977
 31
0.0
  0
LINE
  5
A0
330
1F
100
AcDbEntity
  8
0
  6
Continuous
 62
     7
370
    25
100
AcDbLine
 10
324.7138780425
 20
174.3820575973
 30
0.0
 11
324.7138780425
 21
175.0513184781
 31
0.0
  0
LINE
  5
A1
330
1F
100
AcDbEntity
  8
0
  6
Continuous
 62
     7
370
    25
100
AcDbLine
 10
324.6431672211
 20
174.316420431
 30
0.0
 11
355.0487582642
 21
156.7636463431
 31
0.0
  0
LINE
  5
A2
330
1F
100
AcDbEntity
  8
0
  6
Continuous
 62
     7
370
    25
100
AcDbLine
 10
324.6431672211
 20
173.6631969878
 30
0.0
 11
355.0487593179
 21
156.1104222917
 31
0.0
  0
LINE
  5
A3
330
1F
100
AcDbEntity
  8
0
  6
Continuous
 62
     7
370
    25
100
AcDbLine
 10
324.6431672211
 20
173.6631969878
 30
0.0
 11
324.6431672211
 21
174.2671432319
 31
0.0
  0
LINE
  5
A4
330
1F
100
AcDbEntity
  8
0
  6
Continuous
 62
     7
370
    25
100
AcDbLine
 10
324.7138780425
 20
172.9531125392
 30
0.0
 11
355.0487582642
 21
155.4411589396
 31
0.0
  0
LINE
  5
A5
330
1F
100
AcDbEntity
  8
0
  6
Continuous
 62
     7
370
    25
100
AcDbLine
 10
324.7138780425
 20
172.9531125392
 30
0.0
 11
324.7138780425
 21
173.6223734201
 31
0.0
  0
LINE
  5
A6
330
1F
100
AcDbEntity
  8
0
  6
Continuous
 62
     7
370
    25
100
AcDbLine
 10
324.6431672211
 20
172.8874753729
 30
0.0
 11
355.0487582642
 21
155.334701285
 31
0.0
  0
LINE
  5
A7
330
1F
100
AcDbEntity
  8
0
  6
Continuous
 62
     7
370
    25
100
AcDbLine
 10
324.6431672211
 20
172.2342470628
 30
0.0
 11
355.0487593179
 21
154.6814723667
 31
0.0
  0
LINE
  5
A8
330
1F
100
AcDbEntity
  8
0
  6
Continuous
 62
     7
370
    25
100
AcDbLine
 10
324.6431672211
 20
172.2342470628
 30
0.0
 11
324.6431672211
 21
172.8381981738
 31
0.0
  0
LINE
  5
A9
330
1F
100
AcDbEntity
  8
0
  6
Continuous
 62
     7
370
    25
100
AcDbLine
 10
324.7138780425
 20
171.5241674812
 30
0.0
 11
355.0487582642
 21
154.0122138816
 31
0.0
  0
LINE
  5
AA
330
1F
100
AcDbEntity
  8
0
  6
Continuous
 62
     7
370
    25
100
AcDbLine
 10
324.7138780425
 20
171.5241674812
 30
0.0
 11
324.7138780425
 21
172.193428362
 31
0.0
  0
LINE
  5
AB
330
1F
100
AcDbEntity
  8
0
  6
Continuous
 62
     7
370
    25
100
AcDbLine
 10
324.6431672211
 20
171.4585303149
 30
0.0
 11
355.0487582642
 21
153.905756227
 31
0.0
  0
LINE
  5
AC
330
1F
100
AcDbEntity
  8
0
  6
Continuous
 62
     7
370
    25
100
AcDbLine
 10
324.6431672211
 20
170.8053020048
 30
0.0
 11
355.0487593179
 21
153.2525273086
 31
0.0
  0
LINE
  5
AD
330
1F
100
AcDbEntity
  8
0
  6
Continuous
 62
     7
370
    25
100
AcDbLine
 10
324.6431672211
 20
170.8053020048
 30
0.0
 11
324.6431672211
 21
171.4092531158
 31
0.0
  0
LINE
  5
AE
330
1F
100
AcDbEntity
  8
0
  6
Continuous
 62
     7
370
    25
100
AcDbLine
 10
324.7138780425
 20
170.0952175562
 30
0.0
 11
355.0487582642
 21
152.5832639566
 31
0.0
  0
LINE
  5
AF
330
1F
100
AcDbEntity
  8
0
  6
Continuous
 62
     7
370
    25
100
AcDbLine
 10
324.7138780425
 20
170.0952175562
 30
0.0
 11
324.7138780425
 21
170.764483304
 31
0.0
  0
LINE
  5
B0
330
1F
100
AcDbEntity
  8
0
  6
Continuous
 62
     7
370
    25
100
AcDbLine
 10
324.6431672211
 20
170.0295828233
 30
0.0
 11
355.0487582642
 21
152.4768087354
 31
0.0
  0
LINE
  5
B1
330
1F
100
AcDbEntity
  8
0
  6
Continuous
 62
     7
370
    25
100
AcDbLine
 10
324.6431672211
 20
169.3763545132
 30
0.0
 11
355.0487593179
 21
151.8235798171
 31
0.0
  0
LINE
  5
B2
330
1F
100
AcDbEntity
  8
0
  6
Continuous
 62
     7
370
    25
100
AcDbLine
 10
324.6431672211
 20
169.3763545132
 30
0.0
 11
324.6431672211
 21
169.9803056242
 31
0.0
  0
LINE
  5
B3
330
1F
100
AcDbEntity
  8
0
  6
Continuous
 62
     7
370
    25
100
AcDbLine
 10
324.7138780425
 20
168.6662724981
 30
0.0
 11
355.0487582642
 21
151.1543188985
 31
0.0
  0
LINE
  5
B4
330
1F
100
AcDbEntity
  8
0
  6
Continuous
 62
     7
370
    25
100
AcDbLine
 10
324.7138780425
 20
168.6662724981
 30
0.0
 11
324.7138780425
 21
169.3355333789
 31
0.0
  0
LINE
  5
B5
330
1F
100
AcDbEntity
  8
0
  6
Continuous
 62
     7
370
    25
100
AcDbLine
 10
324.6431672211
 20
168.5189879651
 30
0.0
 11
324.6078112836
 21
168.4985774168
 31
0.0
  0
LINE
  5
B6
330
1F
100
AcDbEntity
  8
0
  6
Continuous
 62
     7
370
    25
100
AcDbLine
 10
355.0487593179
 20
150.9662132689
 30
0.0
 11
324.6431672211
 21
168.5189879651
 31
0.0
  0
LINE
  5
B7
330
1F
100
AcDbEntity
  8
0
  6
Continuous
 62
     7
370
    25
100
AcDbLine
 10
324.6432135826
 20
168.5189604324
 30
0.0
 11
324.8061353866
 21
168.6130131878
 31
0.0
  0
LINE
  5
B8
330
1F
100
AcDbEntity
  8
0
  6
Continuous
 62
     7
370
    25
100
AcDbLine
 10
325.9515687179
 20
169.274257775
 30
0.0
 11
326.0437733784
 21
169.3274863925
 31
0.0
  0
LINE
  5
B9
330
1F
100
AcDbEntity
  8
0
  6
Continuous
 62
     7
370
    25
100
AcDbLine
 10
324.6431672211
 20
174.2671432319
 30
0.0
 11
324.6431672211
 21
175.0921420459
 31
0.0
  0
LINE
  5
BA
330
1F
100
AcDbEntity
  8
0
  6
Continuous
 62
     7
370
    25
100
AcDbLine
 10
324.6431672211
 20
172.8381981738
 30
0.0
 11
324.6431672211
 21
173.6631969878
 31
0.0
  0
LINE
  5
BB
330
1F
100
AcDbEntity
  8
0
  6
Continuous
 62
     7
370
    25
100
AcDbLine
 10
324.6431672211
 20
171.4092531158
 30
0.0
 11
324.6431672211
 21
172.2342470628
 31
0.0
  0
LINE
  5
BC
330
1F
100
AcDbEntity
  8
0
  6
Continuous
 62
     7
370
    25
100
AcDbLine
 10
324.6431672211
 20
169.9803056242
 30
0.0
 11
324.6431672211
 21
170.8053020048
 31
0.0
  0
LINE
  5
BD
330
1F
100
AcDbEntity
  8
0
  6
Continuous
 62
     7
370
    25
100
AcDbLine
 10
324.6431672211
 20
168.5189879651
 30
0.0
 11
324.6431672211
 21
169.3763545132
 31
0.0
  0
LINE
  5
BE
330
1F
100
AcDbEntity
  8
0
  6
Continuous
 62
     7
370
    25
100
AcDbLine
 10
324.6431672211
 20
175.6960931569
 30
0.0
 11
324.6431672211
 21
175.7045519377
 31
0.0
  0
LINE
  5
BF
330
1F
100
AcDbEntity
  8
0
  6
Continuous
 62
     7
370
    25
100
AcDbLine
 10
326.764487649
 20
173.1982667458
 30
0.0
 11
326.764487649
 21
173.091806808
 31
0.0
  0
LINE
  5
C0
330
1F
100
AcDbEntity
  8
0
  6
Continuous
 62
     7
370
    25
100
AcDbLine
 10
326.764487649
 20
171.7693216877
 30
0.0
 11
326.764487649
 21
171.6628617499
 31
0.0
  0
LINE
  5
C1
330
1F
100
AcDbEntity
  8
0
  6
Continuous
 62
     7
370
    25
100
AcDbLine
 10
326.764487649
 20
170.3403741962
 30
0.0
 11
326.764487649
 21
170.2339166919
 31
0.0
  0
LWPOLYLINE
  5
C2
330
1F
100
AcDbEntity
  8
0
  6
Continuous
 62
     7
370
    25
100
AcDbPolyline
 90
       21
 70
   128
 43
0.0
 10
328.1376214367
 20
110.1260952787
 10
328.1442100428
 20
110.130061863
 10
328.191299663
 20
110.1702241976
 10
328.2278567857
 20
110.2246871132
 10
328.2528287935
 20
110.2918863909
 10
328.2654970825
 20
110.3698873458
 10
328.2654970825
 20
110.4564474907
 10
328.2528287935
 20
110.5490749407
 10
328.2278567857
 20
110.6451050682
 10
328.191299663
 20
110.741777156
 10
328.1442100428
 20
110.8363080087
 10
328.087940839
 20
110.925978338
 10
328.0241104906
 20
111.0082112392
 10
327.9545576539
 20
111.0806372823
 10
327.8812811431
 20
111.14117542
 10
327.806390408
 20
111.1880822611
 10
327.7320391525
 20
111.220009859
 10
327.6603663293
 20
111.2360385584
 10
327.5934339728
 20
111.2357092333
 10
327.5331671405
 20
111.2190287564
 10
327.5126721817
 20
111.2086571613
  0
LWPOLYLINE
  5
C3
330
1F
100
AcDbEntity
  8
0
  6
Continuous
 62
     7
370
    25
100
AcDbPolyline
 90
       21
 70
   128
 43
0.0
 10
352.1438973661
 20
96.2675671718
 10
352.1504849185
 20
96.2715343644
 10
352.1975755923
 20
96.3116960906
 10
352.2341327151
 20
96.3661590062
 10
352.2591036691
 20
96.4333588922
 10
352.2717719581
 20
96.5113598471
 10
352.2717719581
 20
96.597919992
 10
352.2591036691
 20
96.690547442
 10
352.2341327151
 20
96.7865769612
 10
352.1975755923
 20
96.883249049
 10
352.1504849185
 20
96.97778051
 10
352.0942157147
 20
97.0674508393
 10
352.03038642
 20
97.1496831322
 10
351.9608325296
 20
97.2221097836
 10
351.8875570724
 20
97.2826473131
 10
351.8126663373
 20
97.3295541542
 10
351.7383140282
 20
97.3614823603
 10
351.6666412049
 20
97.3775110597
 10
351.5997088485
 20
97.3771817346
 10
351.5394430698
 20
97.3605006494
 10
351.518948111
 20
97.3501290543
  0
LINE
  5
C4
330
1F
100
AcDbEntity
  8
0
  6
Continuous
 62
     7
370
    25
100
AcDbLine
 10
324.289613114
 20
93.6829952322
 30
0.0
 11
355.3669564338
 21
75.7424268095
 31
0.0
  0
LINE
  5
C5
330
1F
100
AcDbEntity
  8
0
  6
Continuous
 62
     7
370
    25
100
AcDbLine
 10
324.289613114
 20
114.749748286
 30
0.0
 11
324.289613114
 21
111.2286554406
 31
0.0
  0
LINE
  5
C6
330
1F
100
AcDbEntity
  8
0
  6
Continuous
 62
     7
370
    25
100
AcDbLine
 10
324.289613114
 20
110.0462962545
 30
0.0
 11
324.289613114
 21
93.6829952322
 31
0.0
  0
LINE
  5
C7
330
1F
100
AcDbEntity
  8
0
  6
Continuous
 62
     7
370
    25
100
AcDbLine
 10
355.3669564338
 20
96.8091798632
 30
0.0
 11
324.289613114
 21
114.749748286
 31
0.0
  0
LINE
  5
C8
330
1F
100
AcDbEntity
  8
0
  6
Continuous
 62
     7
370
    25
100
AcDbLine
 10
355.3669564338
 20
75.7424268095
 30
0.0
 11
355.3669564338
 21
96.8091798632
 31
0.0
  0
LINE
  5
C9
330
1F
100
AcDbEntity
  8
0
  6
Continuous
 62
     7
370
    25
100
AcDbLine
 10
355.3669564338
 20
96.8091798632
 30
0.0
 11
357.3304780071
 21
97.9426967399
 31
0.0
  0
LINE
  5
CA
330
1F
100
AcDbEntity
  8
0
  6
Continuous
 62
     7
370
    25
100
AcDbLine
 10
324.289613114
 20
114.749748286
 30
0.0
 11
324.5725017075
 21
114.9130563949
 31
0.0
  0
LINE
  5
CB
330
1F
100
AcDbEntity
  8
0
  6
Continuous
 62
     7
370
    25
100
AcDbLine
 10
357.3304780071
 20
98.0840675392
 30
0.0
 11
357.1700333842
 21
98.1766902485
 31
0.0
  0
LINE
  5
CC
330
1F
100
AcDbEntity
  8
0
  6
Continuous
 62
     7
370
    25
100
AcDbLine
 10
355.3669564338
 20
75.7424268095
 30
0.0
 11
357.4529219777
 21
76.9466290858
 31
0.0
  0
LINE
  5
CD
330
1F
100
AcDbEntity
  8
0
  6
Continuous
 62
     7
370
    25
100
AcDbLine
 10
357.4529219777
 20
76.9466290858
 30
0.0
 11
357.4529219777
 21
77.4896944959
 31
0.0
  0
LWPOLYLINE
  5
CE
330
1F
100
AcDbEntity
  8
0
  6
Continuous
 62
     7
370
    25
100
AcDbPolyline
 90
       42
 70
   128
 43
0.0
 10
352.0435541491
 20
95.5026950534
 10
351.9625995362
 20
95.4487833971
 10
351.8835425851
 20
95.3817812588
 10
351.8082367035
 20
95.303259885
 10
351.7384457371
 20
95.215058822
 10
351.6758060371
 20
95.1192445503
 10
351.6217864214
 20
95.0180642519
 10
351.5776534027
 20
94.9138892355
 10
351.5444395787
 20
94.809160186
 10
351.5229246662
 20
94.7063324126
 10
351.5136133737
 20
94.6078180565
 10
351.5167238111
 20
94.5159234288
 10
351.5321822215
 20
94.432804601
 10
351.5596261419
 20
94.3604071754
 10
351.5984138866
 20
94.3004316071
 10
351.6476350836
 20
94.2542808836
 10
351.706135963
 20
94.2230374038
 10
351.7725456985
 20
94.2074343826
 10
351.8453080178
 20
94.20783638
 10
351.9227170271
 20
94.2242344303
 10
352.0029583047
 20
94.2562454306
 10
352.0841510473
 20
94.3031170032
 10
352.1643923248
 20
94.36375061
 10
352.2418013342
 20
94.4367270994
 10
352.3145625998
 20
94.5203340794
 10
352.380973389
 20
94.6126127574
 10
352.4394742684
 20
94.7113999149
 10
352.4886954654
 20
94.8143802229
 10
352.5274821564
 20
94.9191385596
 10
352.5549271305
 20
95.0232226696
 10
352.5703855408
 20
95.1241893981
 10
352.5734949246
 20
95.2196746521
 10
352.5641836321
 20
95.3074384187
 10
352.5426697733
 20
95.3854262111
 10
352.5094559493
 20
95.4518073958
 10
352.4653218769
 20
95.5050269051
 10
352.4113022611
 20
95.5438374827
 10
352.3486636149
 20
95.5673301045
 10
352.2788726484
 20
95.5749522328
 10
352.2035657132
 20
95.5665266782
 10
352.1245087621
 20
95.5422516037
 10
352.0435541491
 20
95.5026950534
  0
SPLINE
  5
CF
330
1F
100
AcDbEntity
  8
0
  6
Continuous
 62
     7
370
    25
100
AcDbSpline
210
0.0
220
0.0
230
1.0
 70
     8
 71
     3
 72
    14
 73
    10
 74
     0
 42
0.000000001
 43
0.00000001
 40
0.0
 40
0.0
 40
0.0
 40
0.0
 40
0.0542718074559109
 40
0.2243337030106177
 40
0.4070054734829588
 40
0.5913139553738823
 40
0.7916044730179084
 40
0.9495235665599323
 40
0.9999999999999999
 40
0.9999999999999999
 40
0.9999999999999999
 40
0.9999999999999999
 10
326.4121210293226
 20
110.55185242848
 30
0.0
 10
326.414518827751
 20
110.5507735261887
 30
0.0
 10
326.4244301799927
 20
110.5463138599725
 30
0.0
 10
326.4537140415285
 20
110.5215240376943
 30
0.0
 10
326.5121247451038
 20
110.477878716602
 30
0.0
 10
326.6133374333965
 20
110.4193992325778
 30
0.0
 10
326.7317650063692
 20
110.3614383215606
 30
0.0
 10
326.8222031833567
 20
110.3167006219455
 30
0.0
 10
326.8655051028162
 20
110.2904869152709
 30
0.0
 10
326.8759934587184
 20
110.28413757352
 30
0.0
  0
SPLINE
  5
D0
330
1F
100
AcDbEntity
  8
0
  6
Continuous
 62
     7
370
    25
100
AcDbSpline
210
0.0
220
0.0
230
1.0
 70
     8
 71
     3
 72
    14
 73
    10
 74
     0
 42
0.000000001
 43
0.00000001
 40
0.0
 40
0.0
 40
0.0
 40
0.0
 40
0.0619766751365331
 40
0.232861367695786
 40
0.413825572879683
 40
0.5963319047937266
 40
0.7989326283709284
 40
0.9588562607709157
 40
1.0
 40
1.0
 40
1.0
 40
1.0
 10
350.881929052267
 20
96.42566724069168
 30
0.0
 10
350.8690108304334
 20
96.43342364126501
 30
0.0
 10
350.8204739446173
 20
96.46256631537462
 30
0.0
 10
350.7285501505006
 20
96.50750730015861
 30
0.0
 10
350.6131787843387
 20
96.56437731425693
 30
0.0
 10
350.5131490135971
 20
96.62263233075369
 30
0.0
 10
350.4565189511455
 20
96.66581019509418
 30
0.0
 10
350.428608248488
 20
96.68929904308469
 30
0.0
 10
350.4199146001904
 20
96.69290112196713
 30
0.0
 10
350.4181356482122
 20
96.69363820324003
 30
0.0
  0
LWPOLYLINE
  5
D1
330
1F
100
AcDbEntity
  8
0
  6
Continuous
 62
     7
370
    25
100
AcDbPolyline
 90
        7
 70
   128
 43
0.0
 10
323.9714159981
 20
110.4836837184
 10
323.977630551
 20
110.3937879043
 10
323.9961309101
 20
110.3131758851
 10
324.0264819094
 20
110.2437366915
 10
324.0679733744
 20
110.1870971724
 10
324.119631713
 20
110.144584883
 10
324.1267766574
 20
110.1403006771
  0
LWPOLYLINE
  5
D2
330
1F
100
AcDbEntity
  8
0
  6
Continuous
 62
     7
370
    25
100
AcDbPolyline
 90
       17
 70
   128
 43
0.0
 10
324.8767155528
 20
111.4393740845
 10
324.8545884573
 20
111.4507222671
 10
324.7900163244
 20
111.4702843898
 10
324.7186869979
 20
111.4738962853
 10
324.6422737079
 20
111.461476275
 10
324.562565588
 20
111.4333125586
 10
324.4814329046
 20
111.3900674758
 10
324.400775427
 20
111.3327513514
 10
324.3224855485
 20
111.2627121564
 10
324.2483966572
 20
111.1815874519
 10
324.1802462568
 20
111.0912806653
 10
324.119631713
 20
110.9939087756
 10
324.0679733744
 20
110.8917542548
 10
324.0264819094
 20
110.7872097097
 10
323.9961309101
 20
110.6827267815
 10
323.977630551
 20
110.5807547024
 10
323.9714159981
 20
110.4836837184
  0
LINE
  5
D3
330
1F
100
AcDbEntity
  8
0
  6
Continuous
 62
     7
370
    25
100
AcDbLine
 10
355.3669564338
 20
97.1357956331
 30
0.0
 11
357.3304780071
 21
98.2693125098
 31
0.0
  0
LINE
  5
D4
330
1F
100
AcDbEntity
  8
0
  6
Continuous
 62
     7
370
    25
100
AcDbLine
 10
355.3669564338
 20
97.1357956331
 30
0.0
 11
355.3669564338
 21
150.0476403991
 31
0.0
  0
LINE
  5
D5
330
1F
100
AcDbEntity
  8
0
  6
Continuous
 62
     7
370
    25
100
AcDbLine
 10
355.3669564338
 20
150.0476403991
 30
0.0
 11
357.4529219777
 21
151.2518426754
 31
0.0
  0
LINE
  5
D6
330
1F
100
AcDbEntity
  8
0
  6
Continuous
 62
     7
370
    25
100
AcDbLine
 10
357.4529219777
 20
151.0477612037
 30
0.0
 11
357.4529219777
 21
151.2518426754
 31
0.0
  0
LWPOLYLINE
  5
D7
330
1F
100
AcDbEntity
  8
0
  6
Continuous
 62
     7
370
    25
100
AcDbPolyline
 90
       21
 70
   128
 43
0.0
 10
326.9885729594
 20
119.2814514641
 10
326.9951615655
 20
119.2854180484
 10
327.0422511857
 20
119.3255803829
 10
327.0788083084
 20
119.3800439069
 10
327.1037803162
 20
119.4472425763
 10
327.1164486052
 20
119.5252435312
 10
327.1164486052
 20
119.6118030677
 10
327.1037803162
 20
119.7044305177
 10
327.0788083084
 20
119.8004612535
 10
327.0422511857
 20
119.8971327329
 10
326.9951615655
 20
119.9916635857
 10
326.9388923618
 20
120.0813345234
 10
326.8750620134
 20
120.1635668161
 10
326.8055091766
 20
120.2359928592
 10
326.7322326658
 20
120.296530997
 10
326.6573419307
 20
120.3434378381
 10
326.5829906752
 20
120.375365436
 10
326.511317852
 20
120.3913947438
 10
326.4443854955
 20
120.3910648103
 10
326.3841186632
 20
120.3743849417
 10
326.3636237044
 20
120.3640127383
  0
LWPOLYLINE
  5
D8
330
1F
100
AcDbEntity
  8
0
  6
Continuous
 62
     7
370
    25
100
AcDbPolyline
 90
       21
 70
   128
 43
0.0
 10
326.9885729594
 20
155.862479749
 10
326.9951615655
 20
155.8664463333
 10
327.0422511857
 20
155.9066086678
 10
327.0788083084
 20
155.9610715834
 10
327.1037803162
 20
156.0282720779
 10
327.1164486052
 20
156.106271816
 10
327.1164486052
 20
156.1928307442
 10
327.1037803162
 20
156.2854594109
 10
327.0788083084
 20
156.3814895384
 10
327.0422511857
 20
156.4781604094
 10
326.9951615655
 20
156.5726912622
 10
326.9388923618
 20
156.662364025
 10
326.8750620134
 20
156.7445944926
 10
326.8055091766
 20
156.8170217525
 10
326.7322326658
 20
156.8775598903
 10
326.6573419307
 20
156.9244655146
 10
326.5829906752
 20
156.9563931125
 10
326.511317852
 20
156.9724242454
 10
326.4443854955
 20
156.9720937035
 10
326.3841186632
 20
156.9554144433
 10
326.3636237044
 20
156.9450404148
  0
LINE
  5
D9
330
1F
100
AcDbEntity
  8
0
  6
Continuous
 62
     7
370
    25
100
AcDbLine
 10
324.289613114
 20
115.0763640559
 30
0.0
 11
355.3669564338
 21
97.1357956331
 31
0.0
  0
LINE
  5
DA
330
1F
100
AcDbEntity
  8
0
  6
Continuous
 62
     7
370
    25
100
AcDbLine
 10
324.289613114
 20
167.9882088218
 30
0.0
 11
324.289613114
 21
115.0763640559
 31
0.0
  0
LINE
  5
DB
330
1F
100
AcDbEntity
  8
0
  6
Continuous
 62
     7
370
    25
100
AcDbLine
 10
355.3669564338
 20
150.0476403991
 30
0.0
 11
324.289613114
 21
167.9882088218
 31
0.0
  0
LINE
  5
DC
330
1F
100
AcDbEntity
  8
0
  6
Continuous
 62
     7
370
    25
100
AcDbLine
 10
324.289613114
 20
167.9882088218
 30
0.0
 11
324.5725017075
 21
168.1515169307
 31
0.0
  0
LINE
  5
DD
330
1F
100
AcDbEntity
  8
0
  6
Continuous
 62
     7
370
    25
100
AcDbLine
 10
357.4529219777
 20
151.2518426754
 30
0.0
 11
357.1700333842
 21
151.4151507844
 31
0.0
  0
SPLINE
  5
DE
330
1F
100
AcDbEntity
  8
0
  6
Continuous
 62
     7
370
    25
100
AcDbSpline
210
0.0
220
0.0
230
1.0
 70
     8
 71
     3
 72
    14
 73
    10
 74
     0
 42
0.000000001
 43
0.00000001
 40
0.0
 40
0.0
 40
0.0
 40
0.0
 40
0.0235336449088464
 40
0.1521478671828298
 40
0.2834069171848699
 40
0.4575856144837231
 40
0.6327612708788074
 40
0.8529014065528092
 40
1.0
 40
1.0
 40
1.0
 40
1.0
 10
325.8698133148482
 20
119.1933647633728
 30
0.0
 10
325.8700265591103
 20
119.187662411492
 30
0.0
 10
325.8714052091154
 20
119.1507960153198
 30
0.0
 10
325.8672342825682
 20
119.0806253862147
 30
0.0
 10
325.8610023704873
 20
118.9746529533452
 30
0.0
 10
325.8541136848353
 20
118.8611584104798
 30
0.0
 10
325.857202909885
 20
118.753458216892
 30
0.0
 10
325.8682187328042
 20
118.6882354750573
 30
0.0
 10
325.8694708713045
 20
118.6652738016641
 30
0.0
 10
325.8699724192013
 20
118.6560764333271
 30
0.0
  0
SPLINE
  5
DF
330
1F
100
AcDbEntity
  8
0
  6
Continuous
 62
     7
370
    25
100
AcDbSpline
210
0.0
220
0.0
230
1.0
 70
     8
 71
     3
 72
    14
 73
    10
 74
     0
 42
0.000000001
 43
0.00000001
 40
0.0
 40
0.0
 40
0.0
 40
0.0
 40
0.0235336635170231
 40
0.1521463690700233
 40
0.2834055228592838
 40
0.4575863110112589
 40
0.6327610997275628
 40
0.8529004955037067
 40
0.9999999999999999
 40
0.9999999999999999
 40
0.9999999999999999
 40
0.9999999999999999
 10
325.8698133148482
 20
155.2369964327368
 30
0.0
 10
325.8700265596525
 20
155.23799376504
 30
0.0
 10
325.8714051984986
 20
155.2444415706947
 30
0.0
 10
325.8672342473301
 20
155.2683319225761
 30
0.0
 10
325.861002334
 20
155.3136876492311
 30
0.0
 10
325.8541137137419
 20
155.3896600816599
 30
0.0
 10
325.8572029003647
 20
155.5142169881329
 30
0.0
 10
325.868218765911
 20
155.6482726887389
 30
0.0
 10
325.869470878722
 20
155.7382842763057
 30
0.0
 10
325.8699724192013
 20
155.7743388988421
 30
0.0
  0
LWPOLYLINE
  5
E0
330
1F
100
AcDbEntity
  8
0
  6
Continuous
 62
     7
370
    25
100
AcDbPolyline
 90
       17
 70
   128
 43
0.0
 10
325.6507940555
 20
116.5771782209
 10
325.5636238361
 20
116.5340323109
 10
325.4660665259
 20
116.4990737345
 10
325.360409645
 20
116.4731218333
 10
325.2491282672
 20
116.4567842706
 10
325.1348302287
 20
116.4504448656
 10
325.0201960691
 20
116.4542520366
 10
324.90791265
 20
116.4681169759
 10
324.8006099347
 20
116.49171365
 10
324.7008040901
 20
116.5244897485
 10
324.6108363736
 20
116.5656764162
 10
324.532813074
 20
116.614309543
 10
324.4685644181
 20
116.6692474032
 10
324.4195939948
 20
116.7292035029
 10
324.3870534668
 20
116.7927721266
 10
324.3717025309
 20
116.8584636177
 10
324.3704644672
 20
116.8833315792
  0
LWPOLYLINE
  5
E1
330
1F
100
AcDbEntity
  8
0
  6
Continuous
 62
     7
370
    25
100
AcDbPolyline
 90
        7
 70
   128
 43
0.0
 10
325.8704644837
 20
116.8833315792
 10
325.8703264527
 20
116.875037798
 10
325.859346145
 20
116.8090555532
 10
325.8310455899
 20
116.7448141812
 10
325.786089654
 20
116.6838191539
 10
325.725533062
 20
116.6275005175
 10
325.6507940555
 20
116.5771782209
  0
LWPOLYLINE
  5
E2
330
1F
100
AcDbEntity
  8
0
  6
Continuous
 62
     7
370
    25
100
AcDbPolyline
 90
       42
 70
   128
 43
0.0
 10
324.5901338416
 20
157.2409109302
 10
324.5153937815
 20
157.2912326184
 10
324.4548371895
 20
157.3475512549
 10
324.4098823073
 20
157.4085456739
 10
324.3815828058
 20
157.4727876541
 10
324.3706014444
 20
157.5387705073
 10
324.3771963726
 20
157.604947399
 10
324.4012137542
 20
157.6697672371
 10
324.4420888215
 20
157.7317117761
 10
324.4988637875
 20
157.7893278555
 10
324.5702099727
 20
157.841265721
 10
324.6544530935
 20
157.8863070049
 10
324.7496196237
 20
157.9233975727
 10
324.8534768342
 20
157.9516669881
 10
324.9635939053
 20
157.9704528433
 10
325.0773872352
 20
157.97931475
 10
325.1921889285
 20
157.9780446792
 10
325.3053110699
 20
157.9666736529
 10
325.4140994617
 20
157.945466269
 10
325.5160063267
 20
157.9149213102
 10
325.6086419387
 20
157.8757541036
 10
325.6898346813
 20
157.828882531
 10
325.7576816244
 20
157.7754051305
 10
325.810592778
 20
157.7165755495
 10
325.8473279712
 20
157.653773956
 10
325.8670263545
 20
157.5884693256
 10
325.86922642
 20
157.5221957187
 10
325.8538754841
 20
157.4565042276
 10
325.8213328487
 20
157.3929356038
 10
325.7723645327
 20
157.3329795042
 10
325.7081148232
 20
157.2780410356
 10
325.6300915236
 20
157.2294091254
 10
325.5401227534
 20
157.1882218494
 10
325.4403190161
 20
157.155445751
 10
325.3330163008
 20
157.1318490769
 10
325.220731828
 20
157.1179847458
 10
325.1060976684
 20
157.1141775749
 10
324.9918006836
 20
157.1205163716
 10
324.8805182522
 20
157.136853326
 10
324.7748603176
 20
157.1628058354
 10
324.6773030074
 20
157.1977644119
 10
324.5901338416
 20
157.2409109302
  0
LINE
  5
E3
330
1F
100
AcDbEntity
  8
0
  6
Continuous
 62
     7
370
    25
100
AcDbLine
 10
326.6053885642
 20
177.7558379404
 30
0.0
 11
357.9302181784
 21
159.6723987209
 31
0.0
  0
LINE
  5
E4
330
1F
100
AcDbEntity
  8
0
  6
Continuous
 62
     7
370
    25
100
AcDbLine
 10
344.9901647275
 20
188.3691433089
 30
0.0
 11
326.6053885642
 21
177.7558379404
 31
0.0
  0
LINE
  5
E5
330
1F
100
AcDbEntity
  8
0
  6
Continuous
 62
     7
370
    25
100
AcDbLine
 10
376.3149943417
 20
170.2857040895
 30
0.0
 11
344.9901647275
 21
188.3691433089
 31
0.0
  0
LINE
  5
E6
330
1F
100
AcDbEntity
  8
0
  6
Continuous
 62
     7
370
    25
100
AcDbLine
 10
357.9302181784
 20
159.6723987209
 30
0.0
 11
376.3149943417
 21
170.2857040895
 31
0.0
  0
LINE
  5
E7
330
1F
100
AcDbEntity
  8
0
  6
Continuous
 62
     7
370
    25
100
AcDbLine
 10
357.9302181784
 20
159.6723987209
 30
0.0
 11
357.9302181784
 21
151.7111260971
 31
0.0
  0
LINE
  5
E8
330
1F
100
AcDbEntity
  8
0
  6
Continuous
 62
     7
370
    25
100
AcDbLine
 10
376.3149943417
 20
170.2857040895
 30
0.0
 11
376.3149943417
 21
162.3244314656
 31
0.0
  0
LINE
  5
E9
330
1F
100
AcDbEntity
  8
0
  6
Continuous
 62
     7
370
    25
100
AcDbLine
 10
357.9302181784
 20
151.7111260971
 30
0.0
 11
376.3149943417
 21
162.3244314656
 31
0.0
  0
LWPOLYLINE
  5
EA
330
1F
100
AcDbEntity
  8
0
  6
Continuous
 62
     7
370
    25
100
AcDbPolyline
 90
       11
 70
   128
 43
0.0
 10
362.1735660475
 20
160.8563923056
 10
362.2172675879
 20
160.8896122203
 10
362.2566912231
 20
160.9355669438
 10
362.2879784093
 20
160.9897609816
 10
362.3080655973
 20
161.0468826356
 10
362.3149871635
 20
161.101343905
 10
362.3080655973
 20
161.1478088371
 10
362.2879784093
 20
161.1817383175
 10
362.2566912231
 20
161.1998089391
 10
362.2172675879
 20
161.2002461021
 10
362.1735660475
 20
161.1830092923
  0
LINE
  5
EB
330
1F
100
AcDbEntity
  8
0
  6
Continuous
 62
     7
370
    25
100
AcDbLine
 10
362.1735660475
 20
161.1830092923
 30
0.0
 11
359.6279817448
 21
159.7134747543
 31
0.0
  0
LWPOLYLINE
  5
EC
330
1F
100
AcDbEntity
  8
0
  6
Continuous
 62
     7
370
    25
100
AcDbPolyline
 90
       11
 70
   128
 43
0.0
 10
359.6279817448
 20
159.7134747543
 10
359.5842802044
 20
159.6802548396
 10
359.5448560423
 20
159.634299812
 10
359.513569383
 20
159.5801060784
 10
359.4934816681
 20
159.5229841202
 10
359.486560102
 20
159.4685277178
 10
359.4934816681
 20
159.4220579187
 10
359.513569383
 20
159.3881287424
 10
359.5448560423
 20
159.3700578168
 10
359.5842802044
 20
159.3696209578
 10
359.6279817448
 20
159.3868577676
  0
LINE
  5
ED
330
1F
100
AcDbEntity
  8
0
  6
Continuous
 62
     7
370
    25
100
AcDbLine
 10
359.6279817448
 20
159.3868577676
 30
0.0
 11
362.1735660475
 21
160.8563923056
 31
0.0
  0
LWPOLYLINE
  5
EE
330
1F
100
AcDbEntity
  8
0
  6
Continuous
 62
     7
370
    25
100
AcDbPolyline
 90
       11
 70
   128
 43
0.0
 10
362.1735660475
 20
159.1008302609
 10
362.2172675879
 20
159.1340501756
 10
362.2566912231
 20
159.1800048991
 10
362.2879784093
 20
159.2341989369
 10
362.3080655973
 20
159.2913205909
 10
362.3149871635
 20
159.3457769933
 10
362.3080655973
 20
159.3922467924
 10
362.2879784093
 20
159.4261762728
 10
362.2566912231
 20
159.4442468943
 10
362.2172675879
 20
159.4446840574
 10
362.1735660475
 20
159.4274472476
  0
LINE
  5
EF
330
1F
100
AcDbEntity
  8
0
  6
Continuous
 62
     7
370
    25
100
AcDbLine
 10
362.1735660475
 20
159.4274472476
 30
0.0
 11
359.6279817448
 21
157.9579127096
 31
0.0
  0
LWPOLYLINE
  5
F0
330
1F
100
AcDbEntity
  8
0
  6
Continuous
 62
     7
370
    25
100
AcDbPolyline
 90
       11
 70
   128
 43
0.0
 10
359.6279817448
 20
157.9579127096
 10
359.5842802044
 20
157.9246927949
 10
359.5448560423
 20
157.8787377673
 10
359.513569383
 20
157.8245440336
 10
359.4934816681
 20
157.7674220754
 10
359.486560102
 20
157.7129608061
 10
359.4934816681
 20
157.666495874
 10
359.513569383
 20
157.6325666977
 10
359.5448560423
 20
157.614495772
 10
359.5842802044
 20
157.6140589131
 10
359.6279817448
 20
157.6312957229
  0
LINE
  5
F1
330
1F
100
AcDbEntity
  8
0
  6
Continuous
 62
     7
370
    25
100
AcDbLine
 10
359.6279817448
 20
157.6312957229
 30
0.0
 11
362.1735660475
 21
159.1008302609
 31
0.0
  0
LWPOLYLINE
  5
F2
330
1F
100
AcDbEntity
  8
0
  6
Continuous
 62
     7
370
    25
100
AcDbPolyline
 90
       11
 70
   128
 43
0.0
 10
362.1735660475
 20
157.3452682162
 10
362.2172675879
 20
157.3784881309
 10
362.2566912231
 20
157.4244428544
 10
362.2879784093
 20
157.4786320252
 10
362.3080655973
 20
157.5357536793
 10
362.3149871635
 20
157.5902149486
 10
362.3080655973
 20
157.6366847477
 10
362.2879784093
 20
157.6706142281
 10
362.2566912231
 20
157.6886799827
 10
362.2172675879
 20
157.6891171458
 10
362.1735660475
 20
157.6718852029
  0
LINE
  5
F3
330
1F
100
AcDbEntity
  8
0
  6
Continuous
 62
     7
370
    25
100
AcDbLine
 10
362.1735660475
 20
157.6718852029
 30
0.0
 11
359.6279817448
 21
156.2023506649
 31
0.0
  0
LWPOLYLINE
  5
F4
330
1F
100
AcDbEntity
  8
0
  6
Continuous
 62
     7
370
    25
100
AcDbPolyline
 90
       11
 70
   128
 43
0.0
 10
359.6279817448
 20
156.2023506649
 10
359.5842802044
 20
156.1691258832
 10
359.5448560423
 20
156.1231708556
 10
359.513569383
 20
156.0689819889
 10
359.4934816681
 20
156.0118600307
 10
359.486560102
 20
155.9573987614
 10
359.4934816681
 20
155.9109289623
 10
359.513569383
 20
155.876999786
 10
359.5448560423
 20
155.8589337273
 10
359.5842802044
 20
155.8584968684
 10
359.6279817448
 20
155.8757336782
  0
LINE
  5
F5
330
1F
100
AcDbEntity
  8
0
  6
Continuous
 62
     7
370
    25
100
AcDbLine
 10
359.6279817448
 20
155.8757336782
 30
0.0
 11
362.1735660475
 21
157.3452682162
 31
0.0
  0
LWPOLYLINE
  5
F6
330
1F
100
AcDbEntity
  8
0
  6
Continuous
 62
     7
370
    25
100
AcDbPolyline
 90
       11
 70
   128
 43
0.0
 10
362.1735660475
 20
155.589703738
 10
362.2172675879
 20
155.6229260862
 10
362.2566912231
 20
155.6688808097
 10
362.2879784093
 20
155.723072414
 10
362.3080655973
 20
155.780194068
 10
362.3149871635
 20
155.8346529039
 10
362.3080655973
 20
155.8811227029
 10
362.2879784093
 20
155.9150521834
 10
362.2566912231
 20
155.9331203714
 10
362.2172675879
 20
155.9335575345
 10
362.1735660475
 20
155.9163207247
  0
LINE
  5
F7
330
1F
100
AcDbEntity
  8
0
  6
Continuous
 62
     7
370
    25
100
AcDbLine
 10
362.1735660475
 20
155.9163207247
 30
0.0
 11
359.6279817448
 21
154.4467861867
 31
0.0
  0
LWPOLYLINE
  5
F8
330
1F
100
AcDbEntity
  8
0
  6
Continuous
 62
     7
370
    25
100
AcDbPolyline
 90
       11
 70
   128
 43
0.0
 10
359.6279817448
 20
154.4467861867
 10
359.5842802044
 20
154.413566272
 10
359.5448560423
 20
154.3676112443
 10
359.513569383
 20
154.3134199442
 10
359.4934816681
 20
154.256297986
 10
359.486560102
 20
154.2018367167
 10
359.4934816681
 20
154.1553693511
 10
359.513569383
 20
154.1214401748
 10
359.5448560423
 20
154.1033716826
 10
359.5842802044
 20
154.1029348237
 10
359.6279817448
 20
154.1201692
  0
LINE
  5
F9
330
1F
100
AcDbEntity
  8
0
  6
Continuous
 62
     7
370
    25
100
AcDbLine
 10
359.6279817448
 20
154.1201692
 30
0.0
 11
362.1735660475
 21
155.589703738
 31
0.0
  0
LWPOLYLINE
  5
FA
330
1F
100
AcDbEntity
  8
0
  6
Continuous
 62
     7
370
    25
100
AcDbPolyline
 90
       11
 70
   128
 43
0.0
 10
371.1877633123
 20
166.0601776209
 10
371.2314648526
 20
166.0933975356
 10
371.2708887513
 20
166.1393524112
 10
371.3021754106
 20
166.1935461448
 10
371.3222628621
 20
166.2506679509
 10
371.3291846917
 20
166.3051293723
 10
371.3222628621
 20
166.3515941524
 10
371.3021754106
 20
166.3855234807
 10
371.2708887513
 20
166.4035944064
 10
371.2314648526
 20
166.4040314174
 10
371.1877633123
 20
166.3867946076
  0
LINE
  5
FB
330
1F
100
AcDbEntity
  8
0
  6
Continuous
 62
     7
370
    25
100
AcDbLine
 10
371.1877633123
 20
166.3867946076
 30
0.0
 11
370.6574332053
 21
166.0806415535
 31
0.0
  0
LWPOLYLINE
  5
FC
330
1F
100
AcDbEntity
  8
0
  6
Continuous
 62
     7
370
    25
100
AcDbPolyline
 90
       11
 70
   128
 43
0.0
 10
370.6574332053
 20
166.0806415535
 10
370.6137316649
 20
166.0474216388
 10
370.5743077662
 20
166.0014667632
 10
370.5430208435
 20
165.9472728775
 10
370.5229333921
 20
165.8901510714
 10
370.5160118259
 20
165.8356946691
 10
370.5229333921
 20
165.78922487
 10
370.5430208435
 20
165.7552955416
 10
370.5743077662
 20
165.737224768
 10
370.6137316649
 20
165.736787757
 10
370.6574332053
 20
165.7540245668
  0
LINE
  5
FD
330
1F
100
AcDbEntity
  8
0
  6
Continuous
 62
     7
370
    25
100
AcDbLine
 10
370.6574332053
 20
165.7540245668
 30
0.0
 11
371.1877633123
 21
166.0601776209
 31
0.0
  0
LWPOLYLINE
  5
FE
330
1F
100
AcDbEntity
  8
0
  6
Continuous
 62
     7
370
    25
100
AcDbPolyline
 90
       11
 70
   128
 43
0.0
 10
371.1877633123
 20
164.3046155762
 10
371.2314648526
 20
164.3378354909
 10
371.2708887513
 20
164.3837903665
 10
371.3021754106
 20
164.4379841001
 10
371.3222628621
 20
164.4951059062
 10
371.3291846917
 20
164.5495624606
 10
371.3222628621
 20
164.5960321076
 10
371.3021754106
 20
164.629961436
 10
371.2708887513
 20
164.6480323617
 10
371.2314648526
 20
164.6484693727
 10
371.1877633123
 20
164.6312325629
  0
LINE
  5
FF
330
1F
100
AcDbEntity
  8
0
  6
Continuous
 62
     7
370
    25
100
AcDbLine
 10
371.1877633123
 20
164.6312325629
 30
0.0
 11
370.6574332053
 21
164.3250795088
 31
0.0
  0
LWPOLYLINE
  5
100
330
1F
100
AcDbEntity
  8
0
  6
Continuous
 62
     7
370
    25
100
AcDbPolyline
 90
       11
 70
   128
 43
0.0
 10
370.6574332053
 20
164.3250795088
 10
370.6137316649
 20
164.2918595941
 10
370.5743077662
 20
164.2459047185
 10
370.5430208435
 20
164.1917108328
 10
370.5229333921
 20
164.1345890267
 10
370.5160118259
 20
164.0801277574
 10
370.5229333921
 20
164.0336628253
 10
370.5430208435
 20
163.9997334969
 10
370.5743077662
 20
163.9816627233
 10
370.6137316649
 20
163.9812257123
 10
370.6574332053
 20
163.9984625221
  0
LINE
  5
101
330
1F
100
AcDbEntity
  8
0
  6
Continuous
 62
     7
370
    25
100
AcDbLine
 10
370.6574332053
 20
163.9984625221
 30
0.0
 11
371.1877633123
 21
164.3046155762
 31
0.0
  0
LWPOLYLINE
  5
102
330
1F
100
AcDbEntity
  8
0
  6
Continuous
 62
     7
370
    25
100
AcDbPolyline
 90
       11
 70
   128
 43
0.0
 10
371.1877633123
 20
162.5490535315
 10
371.2314648526
 20
162.5822734462
 10
371.2708887513
 20
162.6282283218
 10
371.3021754106
 20
162.6824171884
 10
371.3222628621
 20
162.7395389945
 10
371.3291846917
 20
162.7940004159
 10
371.3222628621
 20
162.8404700629
 10
371.3021754106
 20
162.8743993913
 10
371.2708887513
 20
162.89246545
 10
371.2314648526
 20
162.892902461
 10
371.1877633123
 20
162.8756705182
  0
LINE
  5
103
330
1F
100
AcDbEntity
  8
0
  6
Continuous
 62
     7
370
    25
100
AcDbLine
 10
371.1877633123
 20
162.8756705182
 30
0.0
 11
370.6574332053
 21
162.5695174641
 31
0.0
  0
LWPOLYLINE
  5
104
330
1F
100
AcDbEntity
  8
0
  6
Continuous
 62
     7
370
    25
100
AcDbPolyline
 90
       11
 70
   128
 43
0.0
 10
370.6574332053
 20
162.5695174641
 10
370.6137316649
 20
162.5362926824
 10
370.5743077662
 20
162.4903378068
 10
370.5430208435
 20
162.4361487881
 10
370.5229333921
 20
162.379026982
 10
370.5160118259
 20
162.3245657127
 10
370.5229333921
 20
162.2780959136
 10
370.5430208435
 20
162.2441665852
 10
370.5743077662
 20
162.2261006786
 10
370.6137316649
 20
162.2256636676
 10
370.6574332053
 20
162.2429004774
  0
LINE
  5
105
330
1F
100
AcDbEntity
  8
0
  6
Continuous
 62
     7
370
    25
100
AcDbLine
 10
370.6574332053
 20
162.2429004774
 30
0.0
 11
371.1877633123
 21
162.5490535315
 31
0.0
  0
LWPOLYLINE
  5
106
330
1F
100
AcDbEntity
  8
0
  6
Continuous
 62
     7
370
    25
100
AcDbPolyline
 90
       11
 70
   128
 43
0.0
 10
371.1877633123
 20
160.7934890533
 10
371.2314648526
 20
160.8267114015
 10
371.2708887513
 20
160.872666277
 10
371.3021754106
 20
160.9268575772
 10
371.3222628621
 20
160.9839793833
 10
371.3291846917
 20
161.0384383712
 10
371.3222628621
 20
161.0849080182
 10
371.3021754106
 20
161.1188373466
 10
371.2708887513
 20
161.1369058388
 10
371.2314648526
 20
161.1373428498
 10
371.1877633123
 20
161.12010604
  0
LINE
  5
107
330
1F
100
AcDbEntity
  8
0
  6
Continuous
 62
     7
370
    25
100
AcDbLine
 10
371.1877633123
 20
161.12010604
 30
0.0
 11
370.6574332053
 21
160.8139529859
 31
0.0
  0
LWPOLYLINE
  5
108
330
1F
100
AcDbEntity
  8
0
  6
Continuous
 62
     7
370
    25
100
AcDbPolyline
 90
       11
 70
   128
 43
0.0
 10
370.6574332053
 20
160.8139529859
 10
370.6137316649
 20
160.7807330712
 10
370.5743077662
 20
160.7347781956
 10
370.5430208435
 20
160.6805867434
 10
370.5229333921
 20
160.6234649373
 10
370.5160118259
 20
160.569003668
 10
370.5229333921
 20
160.5225363024
 10
370.5430208435
 20
160.488606974
 10
370.5743077662
 20
160.4705386339
 10
370.6137316649
 20
160.4701016229
 10
370.6574332053
 20
160.4873359992
  0
LINE
  5
109
330
1F
100
AcDbEntity
  8
0
  6
Continuous
 62
     7
370
    25
100
AcDbLine
 10
370.6574332053
 20
160.4873359992
 30
0.0
 11
371.1877633123
 21
160.7934890533
 31
0.0
  0
LWPOLYLINE
  5
10A
330
1F
100
AcDbEntity
  8
0
  6
Continuous
 62
     7
370
    25
100
AcDbPolyline
 90
       11
 70
   128
 43
0.0
 10
372.071646736
 20
166.8970496471
 10
372.0279451957
 20
166.8638297324
 10
371.988521297
 20
166.8178748568
 10
371.9572343742
 20
166.7636809711
 10
371.9371469228
 20
166.706559165
 10
371.9302253566
 20
166.6521027626
 10
371.9371469228
 20
166.6056329636
 10
371.9572343742
 20
166.5717036352
 10
371.988521297
 20
166.5536328616
 10
372.0279451957
 20
166.5531958506
 10
372.071646736
 20
166.5704326604
  0
LINE
  5
10B
330
1F
100
AcDbEntity
  8
0
  6
Continuous
 62
     7
370
    25
100
AcDbLine
 10
372.071646736
 20
166.5704326604
 30
0.0
 11
374.6172313022
 21
168.0399673505
 31
0.0
  0
LWPOLYLINE
  5
10C
330
1F
100
AcDbEntity
  8
0
  6
Continuous
 62
     7
370
    25
100
AcDbPolyline
 90
       11
 70
   128
 43
0.0
 10
374.6172313022
 20
168.0399673505
 10
374.6609328425
 20
168.0731872652
 10
374.7003564778
 20
168.1191419887
 10
374.731643664
 20
168.1733360264
 10
374.751730852
 20
168.2304576805
 10
374.7586524182
 20
168.2849189498
 10
374.751730852
 20
168.3313838819
 10
374.731643664
 20
168.3653133624
 10
374.7003564778
 20
168.3833839839
 10
374.6609328425
 20
168.383821147
 10
374.6172313022
 20
168.3665843371
  0
LINE
  5
10D
330
1F
100
AcDbEntity
  8
0
  6
Continuous
 62
     7
370
    25
100
AcDbLine
 10
374.6172313022
 20
168.3665843371
 30
0.0
 11
372.071646736
 21
166.8970496471
 31
0.0
  0
LWPOLYLINE
  5
10E
330
1F
100
AcDbEntity
  8
0
  6
Continuous
 62
     7
370
    25
100
AcDbPolyline
 90
       11
 70
   128
 43
0.0
 10
372.071646736
 20
165.1414876023
 10
372.0279451957
 20
165.1082676876
 10
371.988521297
 20
165.0623128121
 10
371.9572343742
 20
165.0081189264
 10
371.9371469228
 20
164.9509971203
 10
371.9302253566
 20
164.896535851
 10
371.9371469228
 20
164.8500709188
 10
371.9572343742
 20
164.8161415905
 10
371.988521297
 20
164.7980708169
 10
372.0279451957
 20
164.7976338058
 10
372.071646736
 20
164.8148706157
  0
LINE
  5
10F
330
1F
100
AcDbEntity
  8
0
  6
Continuous
 62
     7
370
    25
100
AcDbLine
 10
372.071646736
 20
164.8148706157
 30
0.0
 11
374.6172313022
 21
166.2844053058
 31
0.0
  0
LWPOLYLINE
  5
110
330
1F
100
AcDbEntity
  8
0
  6
Continuous
 62
     7
370
    25
100
AcDbPolyline
 90
       11
 70
   128
 43
0.0
 10
374.6172313022
 20
166.2844053058
 10
374.6609328425
 20
166.3176252205
 10
374.7003564778
 20
166.363579944
 10
374.731643664
 20
166.4177739817
 10
374.751730852
 20
166.4748956358
 10
374.7586524182
 20
166.5293520381
 10
374.751730852
 20
166.5758218372
 10
374.731643664
 20
166.6097513177
 10
374.7003564778
 20
166.6278219392
 10
374.6609328425
 20
166.6282591023
 10
374.6172313022
 20
166.6110222924
  0
LINE
  5
111
330
1F
100
AcDbEntity
  8
0
  6
Continuous
 62
     7
370
    25
100
AcDbLine
 10
374.6172313022
 20
166.6110222924
 30
0.0
 11
372.071646736
 21
165.1414876023
 31
0.0
  0
LWPOLYLINE
  5
112
330
1F
100
AcDbEntity
  8
0
  6
Continuous
 62
     7
370
    25
100
AcDbPolyline
 90
       11
 70
   128
 43
0.0
 10
372.071646736
 20
163.3859255576
 10
372.0279451957
 20
163.352700776
 10
371.988521297
 20
163.3067459004
 10
371.9572343742
 20
163.2525568817
 10
371.9371469228
 20
163.1954350756
 10
371.9302253566
 20
163.1409738063
 10
371.9371469228
 20
163.0945040072
 10
371.9572343742
 20
163.0605746788
 10
371.988521297
 20
163.0425087722
 10
372.0279451957
 20
163.0420717611
 10
372.071646736
 20
163.059308571
  0
LINE
  5
113
330
1F
100
AcDbEntity
  8
0
  6
Continuous
 62
     7
370
    25
100
AcDbLine
 10
372.071646736
 20
163.059308571
 30
0.0
 11
374.6172313022
 21
164.5288432611
 31
0.0
  0
LWPOLYLINE
  5
114
330
1F
100
AcDbEntity
  8
0
  6
Continuous
 62
     7
370
    25
100
AcDbPolyline
 90
       11
 70
   128
 43
0.0
 10
374.6172313022
 20
164.5288432611
 10
374.6609328425
 20
164.5620631758
 10
374.7003564778
 20
164.6080178992
 10
374.731643664
 20
164.66220707
 10
374.751730852
 20
164.7193287241
 10
374.7586524182
 20
164.7737899934
 10
374.751730852
 20
164.8202597925
 10
374.731643664
 20
164.8541892729
 10
374.7003564778
 20
164.8722550275
 10
374.6609328425
 20
164.8726921906
 10
374.6172313022
 20
164.8554602477
  0
LINE
  5
115
330
1F
100
AcDbEntity
  8
0
  6
Continuous
 62
     7
370
    25
100
AcDbLine
 10
374.6172313022
 20
164.8554602477
 30
0.0
 11
372.071646736
 21
163.3859255576
 31
0.0
  0
LWPOLYLINE
  5
116
330
1F
100
AcDbEntity
  8
0
  6
Continuous
 62
     7
370
    25
100
AcDbPolyline
 90
       11
 70
   128
 43
0.0
 10
372.071646736
 20
161.6303610794
 10
372.0279451957
 20
161.5971411647
 10
371.988521297
 20
161.5511862892
 10
371.9572343742
 20
161.496994837
 10
371.9371469228
 20
161.4398730309
 10
371.9302253566
 20
161.3854117615
 10
371.9371469228
 20
161.3389443959
 10
371.9572343742
 20
161.3050150675
 10
371.988521297
 20
161.2869467274
 10
372.0279451957
 20
161.2865097164
 10
372.071646736
 20
161.3037440928
  0
LINE
  5
117
330
1F
100
AcDbEntity
  8
0
  6
Continuous
 62
     7
370
    25
100
AcDbLine
 10
372.071646736
 20
161.3037440928
 30
0.0
 11
374.6172313022
 21
162.7732787829
 31
0.0
  0
LWPOLYLINE
  5
118
330
1F
100
AcDbEntity
  8
0
  6
Continuous
 62
     7
370
    25
100
AcDbPolyline
 90
       11
 70
   128
 43
0.0
 10
374.6172313022
 20
162.7732787829
 10
374.6609328425
 20
162.806501131
 10
374.7003564778
 20
162.8524558545
 10
374.731643664
 20
162.9066474588
 10
374.751730852
 20
162.9637691129
 10
374.7586524182
 20
163.0182279487
 10
374.751730852
 20
163.0646977478
 10
374.731643664
 20
163.0986272282
 10
374.7003564778
 20
163.1166954163
 10
374.6609328425
 20
163.1171325794
 10
374.6172313022
 20
163.0998957695
  0
LINE
  5
119
330
1F
100
AcDbEntity
  8
0
  6
Continuous
 62
     7
370
    25
100
AcDbLine
 10
374.6172313022
 20
163.0998957695
 30
0.0
 11
372.071646736
 21
161.6303610794
 31
0.0
  0
LINE
  5
11A
330
1F
100
AcDbEntity
  8
0
  6
Continuous
 62
     7
370
    25
100
AcDbLine
 10
326.6053885642
 20
177.7558379404
 30
0.0
 11
326.6053885642
 21
177.6129682561
 31
0.0
  0
LINE
  5
11B
330
1F
100
AcDbEntity
  8
0
  6
Continuous
 62
     7
370
    25
100
AcDbLine
 10
357.8064750312
 20
151.7825614954
 30
0.0
 11
357.9302181784
 21
151.7111260971
 31
0.0
  0
LINE
  5
11C
330
1F
100
AcDbEntity
  8
0
  6
Continuous
 62
     7
370
    25
100
AcDbLine
 10
359.0262343299
 20
74.4172617389
 30
0.0
 11
359.273721678
 21
74.5601331439
 31
0.0
  0
LINE
  5
11D
330
1F
100
AcDbEntity
  8
0
  6
Continuous
 62
     7
370
    25
100
AcDbLine
 10
359.0262343299
 20
74.4172617389
 30
0.0
 11
359.0262343299
 21
78.4591475572
 31
0.0
  0
LINE
  5
11E
330
1F
100
AcDbEntity
  8
0
  6
Continuous
 62
     7
370
    25
100
AcDbLine
 10
359.273721678
 20
74.5601331439
 30
0.0
 11
359.273721678
 21
78.6020189622
 31
0.0
  0
LINE
  5
11F
330
1F
100
AcDbEntity
  8
0
  6
Continuous
 62
     7
370
    25
100
AcDbLine
 10
356.0488450275
 20
76.1360719973
 30
0.0
 11
359.0262343299
 21
74.4172617389
 31
0.0
  0
LINE
  5
120
330
1F
100
AcDbEntity
  8
0
  6
Continuous
 62
     7
370
    25
100
AcDbLine
 10
358.1423506426
 20
151.3641196838
 30
0.0
 11
358.0009289998
 21
151.4457606604
 31
0.0
  0
LINE
  5
121
330
1F
100
AcDbEntity
  8
0
  6
Continuous
 62
     7
370
    25
100
AcDbLine
 10
357.4424590226
 20
150.9600808517
 30
0.0
 11
358.1423506426
 21
151.3641196838
 31
0.0
  0
LINE
  5
122
330
1F
100
AcDbEntity
  8
0
  6
Continuous
 62
     7
370
    25
100
AcDbLine
 10
357.3752843218
 20
150.9988599811
 30
0.0
 11
357.4424590226
 21
150.9600808517
 31
0.0
  0
ARC
  5
123
330
1F
100
AcDbEntity
  8
0
  6
Continuous
 62
     7
370
    25
100
AcDbCircle
 10
357.3682131343
 20
150.985211464
 30
0.0
 40
0.01537152273943
100
AcDbArc
 50
62.6116874879
 51
117.3883125123
  0
LINE
  5
124
330
1F
100
AcDbEntity
  8
0
  6
Continuous
 62
     7
370
    25
100
AcDbLine
 10
357.3565342425
 20
150.9962000101
 30
0.0
 11
357.3611419468
 21
150.9988599811
 31
0.0
  0
ARC
  5
125
330
1F
100
AcDbEntity
  8
0
  6
Continuous
 62
     7
370
    25
100
AcDbCircle
 10
357.3495086652
 20
151.0095551286
 30
0.0
 40
0.0150903256092014
100
AcDbArc
 50
238.8781790204
 51
297.7470080744
  0
ARC
  5
126
330
1F
100
AcDbEntity
  8
0
  6
Continuous
 62
     7
370
    25
100
AcDbCircle
 10
357.3508684582
 20
151.0145439915
 30
0.0
 40
0.0201137611232897
100
AcDbArc
 50
134.0723523162
 51
242.9107248599
  0
ARC
  5
127
330
1F
100
AcDbEntity
  8
0
  6
Continuous
 62
     7
370
    25
100
AcDbCircle
 10
357.3589887789
 20
151.0005900216
 30
0.0
 40
0.0359962093081276
100
AcDbArc
 50
68.0182063981
 51
127.897648465
  0
ARC
  5
128
330
1F
100
AcDbEntity
  8
0
  6
Continuous
 62
     7
370
    25
100
AcDbCircle
 10
357.3997515637
 20
151.1073592524
 30
0.0
 40
0.0782991520784514
100
AcDbArc
 50
249.6030621663
 51
297.0732811112
  0
LINE
  5
129
330
1F
100
AcDbEntity
  8
0
  6
Continuous
 62
     7
370
    25
100
AcDbLine
 10
357.9655762233
 20
151.3437109603
 30
0.0
 11
357.4353878351
 21
151.0376397187
 31
0.0
  0
ARC
  5
12A
330
1F
100
AcDbEntity
  8
0
  6
Continuous
 62
     7
370
    25
100
AcDbCircle
 10
357.9575358224
 20
151.3640098679
 30
0.0
 40
0.0218333162145982
100
AcDbArc
 50
291.6085271976
 51
70.0241812888
  0
LINE
  5
12B
330
1F
100
AcDbEntity
  8
0
  6
Continuous
 62
     7
370
    25
100
AcDbLine
 10
357.5409909787
 20
151.6293017024
 30
0.0
 11
357.9649945968
 21
151.3845296238
 31
0.0
  0
LINE
  5
12C
330
1F
100
AcDbEntity
  8
0
  6
Continuous
 62
     7
370
    25
100
AcDbLine
 10
357.6579885228
 20
151.6029161037
 30
0.0
 11
357.5766366758
 21
151.6498795253
 31
0.0
  0
LINE
  5
12D
330
1F
100
AcDbEntity
  8
0
  6
Continuous
 62
     7
370
    25
100
AcDbLine
 10
357.650927872
 20
151.5988400768
 30
0.0
 11
357.6579885228
 21
151.6029161037
 31
0.0
  0
LINE
  5
12E
330
1F
100
AcDbEntity
  8
0
  6
Continuous
 62
     7
370
    25
100
AcDbLine
 10
357.6933486751
 20
151.5743510684
 30
0.0
 11
357.650927872
 21
151.5988400768
 31
0.0
  0
LINE
  5
12F
330
1F
100
AcDbEntity
  8
0
  6
Continuous
 62
     7
370
    25
100
AcDbLine
 10
357.7534416517
 20
151.6090420054
 30
0.0
 11
357.6933486751
 21
151.5743510684
 31
0.0
  0
LINE
  5
130
330
1F
100
AcDbEntity
  8
0
  6
Continuous
 62
     7
370
    25
100
AcDbLine
 10
357.7887975892
 20
151.5886314571
 30
0.0
 11
357.7534416517
 21
151.6090420054
 31
0.0
  0
LINE
  5
131
330
1F
100
AcDbEntity
  8
0
  6
Continuous
 62
     7
370
    25
100
AcDbLine
 10
357.7711201473
 20
151.5784264871
 30
0.0
 11
357.7887975892
 21
151.5886314571
 31
0.0
  0
LWPOLYLINE
  5
132
330
1F
100
AcDbEntity
  8
0
  6
Continuous
 62
     7
370
    25
100
AcDbPolyline
 90
        9
 70
   128
 43
0.0
 10
357.7779005215
 20
151.5415208338
 10
357.7721748722
 20
151.5453152311
 10
357.7676767498
 20
151.5496260508
 10
357.7645452389
 20
151.5543219063
 10
357.7628741164
 20
151.5592610705
 10
357.7627139583
 20
151.5642926918
 10
357.7640689795
 20
151.5692634861
 10
357.7669001941
 20
151.5740232101
 10
357.7711201473
 20
151.5784264871
  0
LINE
  5
133
330
1F
100
AcDbEntity
  8
0
  6
Continuous
 62
     7
370
    25
100
AcDbLine
 10
357.848611343
 20
151.5007003455
 30
0.0
 11
357.7779005215
 21
151.5415208338
 31
0.0
  0
ARC
  5
134
330
1F
100
AcDbEntity
  8
0
  6
Continuous
 62
     7
370
    25
100
AcDbCircle
 10
357.8849182958
 20
151.5696634457
 30
0.0
 40
0.0779365383323683
100
AcDbArc
 50
242.234573723
 51
290.7580375463
  0
LINE
  5
135
330
1F
100
AcDbEntity
  8
0
  6
Continuous
 62
     7
370
    25
100
AcDbLine
 10
358.9908783923
 20
152.119297197
 30
0.0
 11
357.9125407364
 21
151.4967861187
 31
0.0
  0
LINE
  5
136
330
1F
100
AcDbEntity
  8
0
  6
Continuous
 62
     7
370
    25
100
AcDbLine
 10
359.0439117718
 20
152.0886816787
 30
0.0
 11
358.9908783923
 21
152.119297197
 31
0.0
  0
LINE
  5
137
330
1F
100
AcDbEntity
  8
0
  6
Continuous
 62
     7
370
    25
100
AcDbLine
 10
358.0009289998
 20
151.4865805405
 30
0.0
 11
359.0439117718
 21
152.0886816787
 31
0.0
  0
ARC
  5
138
330
1F
100
AcDbEntity
  8
0
  6
Continuous
 62
     7
370
    25
100
AcDbCircle
 10
358.008675739
 20
151.4661706004
 30
0.0
 40
0.0218306577800765
100
AcDbArc
 50
110.784617105
 51
249.215382895
  0
LINE
  5
139
330
1F
100
AcDbEntity
  8
0
  6
Continuous
 62
     7
370
    25
100
AcDbLine
 10
357.4424590226
 20
77.4836550065
 30
0.0
 11
357.4424590226
 21
150.9600808517
 31
0.0
  0
LINE
  5
13A
330
1F
100
AcDbEntity
  8
0
  6
Continuous
 62
     7
370
    25
100
AcDbLine
 10
357.3752843218
 20
77.5224341358
 30
0.0
 11
357.4424590226
 21
77.4836550065
 31
0.0
  0
LINE
  5
13B
330
1F
100
AcDbEntity
  8
0
  6
Continuous
 62
     7
370
    25
100
AcDbLine
 10
357.3752843218
 20
77.5224341358
 30
0.0
 11
357.3752843218
 21
150.9988599811
 31
0.0
  0
LINE
  5
13C
330
1F
100
AcDbEntity
  8
0
  6
Continuous
 62
     7
370
    25
100
AcDbLine
 10
358.1423506426
 20
77.8876938385
 30
0.0
 11
358.1423506426
 21
151.3641196838
 31
0.0
  0
LINE
  5
13D
330
1F
100
AcDbEntity
  8
0
  6
Continuous
 62
     7
370
    25
100
AcDbLine
 10
357.4424590226
 20
77.4836550065
 30
0.0
 11
358.1423506426
 21
77.8876938385
 31
0.0
  0
LINE
  5
13E
330
1F
100
AcDbEntity
  8
0
  6
Continuous
 62
     7
370
    25
100
AcDbLine
 10
357.3565342425
 20
77.5197741648
 30
0.0
 11
357.3565342425
 21
150.9962000101
 31
0.0
  0
ARC
  5
13F
330
1F
100
AcDbEntity
  8
0
  6
Continuous
 62
     7
370
    25
100
AcDbCircle
 10
357.3495086652
 20
77.5331292833
 30
0.0
 40
0.0150903256092379
100
AcDbArc
 50
238.8781790205
 51
297.7470080743
  0
LINE
  5
140
330
1F
100
AcDbEntity
  8
0
  6
Continuous
 62
     7
370
    25
100
AcDbLine
 10
357.3417090886
 20
77.5202109037
 30
0.0
 11
357.3417090886
 21
150.996636749
 31
0.0
  0
ARC
  5
141
330
1F
100
AcDbEntity
  8
0
  6
Continuous
 62
     7
370
    25
100
AcDbCircle
 10
357.3682131343
 20
77.5087856187
 30
0.0
 40
0.0153715227394805
100
AcDbArc
 50
62.611687488
 51
117.3883125122
  0
LINE
  5
142
330
1F
100
AcDbEntity
  8
0
  6
Continuous
 62
     7
370
    25
100
AcDbLine
 10
357.3611419468
 20
77.5224341358
 30
0.0
 11
357.3611419468
 21
150.9988599811
 31
0.0
  0
LINE
  5
143
330
1F
100
AcDbEntity
  8
0
  6
Continuous
 62
     7
370
    25
100
AcDbLine
 10
357.3565342425
 20
77.5197741648
 30
0.0
 11
357.3611419468
 21
77.5224341358
 31
0.0
  0
ARC
  5
144
330
1F
100
AcDbEntity
  8
0
  6
Continuous
 62
     7
370
    25
100
AcDbCircle
 10
357.3536517409
 20
77.5401432808
 30
0.0
 40
0.0232363207251786
100
AcDbArc
 50
184.2062316907
 51
239.0717100207
  0
LINE
  5
145
330
1F
100
AcDbEntity
  8
0
  6
Continuous
 62
     7
370
    25
100
AcDbLine
 10
357.333394569
 20
151.320844558
 30
0.0
 11
357.333394569
 21
151.5094563894
 31
0.0
  0
LINE
  5
146
330
1F
100
AcDbEntity
  8
0
  6
Continuous
 62
     7
370
    25
100
AcDbLine
 10
359.0439117718
 20
78.6122558334
 30
0.0
 11
359.0439117718
 21
152.0886816787
 31
0.0
  0
LINE
  5
147
330
1F
100
AcDbEntity
  8
0
  6
Continuous
 62
     7
370
    25
100
AcDbLine
 10
358.1423506426
 20
78.0917956718
 30
0.0
 11
359.0439117718
 21
78.6122558334
 31
0.0
  0
LINE
  5
148
330
1F
100
AcDbEntity
  8
0
  6
Continuous
 62
     7
370
    25
100
AcDbLine
 10
357.7711201473
 20
151.546185294
 30
0.0
 11
357.7711201473
 21
151.5784264871
 31
0.0
  0
LINE
  5
149
330
1F
100
AcDbEntity
  8
0
  6
Continuous
 62
     7
370
    25
100
AcDbLine
 10
357.7887975892
 20
151.535228711
 30
0.0
 11
357.7887975892
 21
151.5886314571
 31
0.0
  0
LINE
  5
14A
330
1F
100
AcDbEntity
  8
0
  6
Continuous
 62
     7
370
    25
100
AcDbLine
 10
357.6579885228
 20
151.5947639415
 30
0.0
 11
357.6579885228
 21
151.6029161037
 31
0.0
  0
LINE
  5
14B
330
1F
100
AcDbEntity
  8
0
  6
Continuous
 62
     7
370
    25
100
AcDbLine
 10
357.9302181784
 20
151.7111260971
 30
0.0
 11
357.9302181784
 21
151.5069910888
 31
0.0
  0
LINE
  5
14C
330
1F
100
AcDbEntity
  8
0
  6
Continuous
 62
     7
370
    25
100
AcDbLine
 10
377.7292081359
 20
163.1408397112
 30
0.0
 11
357.9302181784
 21
151.7111260971
 31
0.0
  0
LINE
  5
14D
330
1F
100
AcDbEntity
  8
0
  6
Continuous
 62
     7
370
    25
100
AcDbLine
 10
377.7292081359
 20
89.2561438494
 30
0.0
 11
377.7292081359
 21
163.1408397112
 31
0.0
  0
LINE
  5
14E
330
1F
100
AcDbEntity
  8
0
  6
Continuous
 62
     7
370
    25
100
AcDbLine
 10
377.7292081359
 20
89.2561438494
 30
0.0
 11
358.1423506426
 21
77.9488917001
 31
0.0
  0
LINE
  5
14F
330
1F
100
AcDbEntity
  8
0
  6
Continuous
 62
     7
370
    25
100
AcDbLine
 10
377.7292081359
 20
163.1408397112
 30
0.0
 11
376.3149948686
 21
163.9572476527
 31
0.0
  0
LINE
  5
150
330
1F
100
AcDbEntity
  8
0
  6
Continuous
 62
     7
370
    25
100
AcDbLine
 10
359.3373607851
 20
78.6387562609
 30
0.0
 11
359.3444319726
 21
78.6346741512
 31
0.0
  0
LINE
  5
151
330
1F
100
AcDbEntity
  8
0
  6
Continuous
 62
     7
370
    25
100
AcDbLine
 10
359.3444319726
 20
75.2541939363
 30
0.0
 11
359.3444319726
 21
78.6346741512
 31
0.0
  0
LINE
  5
152
330
1F
100
AcDbEntity
  8
0
  6
Continuous
 62
     7
370
    25
100
AcDbLine
 10
359.2737222048
 20
75.2950138163
 30
0.0
 11
359.3444319726
 21
75.2541939363
 31
0.0
  0
LINE
  5
153
330
1F
100
AcDbEntity
  8
0
  6
Continuous
 62
     7
370
    25
100
AcDbLine
 10
375.2684765028
 20
87.8274293852
 30
0.0
 11
375.2684765028
 21
84.1121678541
 31
0.0
  0
LINE
  5
154
330
1F
100
AcDbEntity
  8
0
  6
Continuous
 62
     7
370
    25
100
AcDbLine
 10
375.2684765028
 20
84.1121678541
 30
0.0
 11
371.7329425442
 21
82.0711475441
 31
0.0
  0
LINE
  5
155
330
1F
100
AcDbEntity
  8
0
  6
Continuous
 62
     7
370
    25
100
AcDbLine
 10
371.7329425442
 20
82.0711475441
 30
0.0
 11
371.7329425442
 21
81.8343503504
 31
0.0
  0
LINE
  5
156
330
1F
100
AcDbEntity
  8
0
  6
Continuous
 62
     7
370
    25
100
AcDbLine
 10
360.6490439409
 20
75.4357518847
 30
0.0
 11
371.7329425442
 21
81.8343503504
 31
0.0
  0
LINE
  5
157
330
1F
100
AcDbEntity
  8
0
  6
Continuous
 62
     7
370
    25
100
AcDbLine
 10
360.6490439409
 20
75.4357518847
 30
0.0
 11
360.1540692446
 21
75.7215875847
 31
0.0
  0
LINE
  5
158
330
1F
100
AcDbEntity
  8
0
  6
Continuous
 62
     7
370
    25
100
AcDbLine
 10
360.1540692446
 20
75.7215875847
 30
0.0
 11
359.3444319726
 21
75.2541939363
 31
0.0
  0
LINE
  5
159
330
1F
100
AcDbEntity
  8
0
  6
Continuous
 62
     7
370
    25
100
AcDbLine
 10
375.2684765028
 20
87.8274293852
 30
0.0
 11
359.3444319726
 21
78.6346741512
 31
0.0
  0
LINE
  5
15A
330
1F
100
AcDbEntity
  8
0
  6
Continuous
 62
     7
370
    25
100
AcDbLine
 10
362.5264120875
 20
78.3894131403
 30
0.0
 11
365.0719966536
 21
79.8589478304
 31
0.0
  0
LWPOLYLINE
  5
15B
330
1F
100
AcDbEntity
  8
0
  6
Continuous
 62
     7
370
    25
100
AcDbPolyline
 90
       11
 70
   128
 43
0.0
 10
365.0719966536
 20
79.8589478304
 10
365.115698194
 20
79.8921677451
 10
365.1551220927
 20
79.9381226207
 10
365.1864090154
 20
79.9923140729
 10
365.2064964668
 20
80.049435879
 10
365.213418033
 20
80.1038947148
 10
365.2064964668
 20
80.1503645139
 10
365.1864090154
 20
80.1842938423
 10
365.1551220927
 20
80.2023621824
 10
365.115698194
 20
80.2027991934
 10
365.0719966536
 20
80.1855623836
  0
LINE
  5
15C
330
1F
100
AcDbEntity
  8
0
  6
Continuous
 62
     7
370
    25
100
AcDbLine
 10
365.0719966536
 20
80.1855623836
 30
0.0
 11
362.5264120875
 21
78.7160276935
 31
0.0
  0
LWPOLYLINE
  5
15D
330
1F
100
AcDbEntity
  8
0
  6
Continuous
 62
     7
370
    25
100
AcDbPolyline
 90
       11
 70
   128
 43
0.0
 10
362.5264120875
 20
78.7160276935
 10
362.4827105471
 20
78.6828077788
 10
362.4432869119
 20
78.6368530553
 10
362.4120002525
 20
78.5826617552
 10
362.3919125377
 20
78.525539797
 10
362.3849909715
 20
78.4710785277
 10
362.3919125377
 20
78.4246111621
 10
362.4120002525
 20
78.3906819857
 10
362.4432869119
 20
78.3726134936
 10
362.4827105471
 20
78.3721763305
 10
362.5264120875
 20
78.3894131403
  0
LINE
  5
15E
330
1F
100
AcDbEntity
  8
0
  6
Continuous
 62
     7
370
    25
100
AcDbLine
 10
366.4154996264
 20
80.6345355877
 30
0.0
 11
368.9610840608
 21
82.1040702018
 31
0.0
  0
LWPOLYLINE
  5
15F
330
1F
100
AcDbEntity
  8
0
  6
Continuous
 62
     7
370
    25
100
AcDbPolyline
 90
       11
 70
   128
 43
0.0
 10
368.9610840608
 20
82.1040702018
 10
369.0047856012
 20
82.1372901165
 10
369.0442093681
 20
82.183244916
 10
369.0754962909
 20
82.2374363682
 10
369.0955837423
 20
82.2945581743
 10
369.1025053085
 20
82.3490170102
 10
369.0955837423
 20
82.3954868093
 10
369.0754962909
 20
82.4294161376
 10
369.0442093681
 20
82.4474844777
 10
369.0047856012
 20
82.4479215648
 10
368.9610840608
 20
82.430684755
  0
LINE
  5
160
330
1F
100
AcDbEntity
  8
0
  6
Continuous
 62
     7
370
    25
100
AcDbLine
 10
368.9610840608
 20
82.430684755
 30
0.0
 11
366.4154996264
 21
80.9611501409
 31
0.0
  0
LWPOLYLINE
  5
161
330
1F
100
AcDbEntity
  8
0
  6
Continuous
 62
     7
370
    25
100
AcDbPolyline
 90
       11
 70
   128
 43
0.0
 10
366.4154996264
 20
80.9611501409
 10
366.3717979543
 20
80.9279301502
 10
366.3323741873
 20
80.8819753507
 10
366.3010872646
 20
80.8277838985
 10
366.2809999449
 20
80.7706621684
 10
366.274078247
 20
80.716200823
 10
366.2809999449
 20
80.6697335334
 10
366.3010872646
 20
80.635804129
 10
366.3323741873
 20
80.6177357889
 10
366.3717979543
 20
80.6172987019
 10
366.4154996264
 20
80.6345355877
  0
LINE
  5
162
330
1F
100
AcDbEntity
  8
0
  6
Continuous
 62
     7
370
    25
100
AcDbLine
 10
370.3045869018
 20
82.8796578831
 30
0.0
 11
372.8501714679
 21
84.3491925732
 31
0.0
  0
LWPOLYLINE
  5
163
330
1F
100
AcDbEntity
  8
0
  6
Continuous
 62
     7
370
    25
100
AcDbPolyline
 90
       11
 70
   128
 43
0.0
 10
372.8501714679
 20
84.3491925732
 10
372.8938730083
 20
84.3824124879
 10
372.9332966436
 20
84.4283672114
 10
372.9645838297
 20
84.4825588156
 10
372.9846710177
 20
84.5396804697
 10
372.9915925839
 20
84.5941393055
 10
372.9846710177
 20
84.6406091046
 10
372.9645838297
 20
84.6745385851
 10
372.9332966436
 20
84.6926067731
 10
372.8938730083
 20
84.6930439362
 10
372.8501714679
 20
84.6758071263
  0
LINE
  5
164
330
1F
100
AcDbEntity
  8
0
  6
Continuous
 62
     7
370
    25
100
AcDbLine
 10
372.8501714679
 20
84.6758071263
 30
0.0
 11
370.3045869018
 21
83.2062724363
 31
0.0
  0
LWPOLYLINE
  5
165
330
1F
100
AcDbEntity
  8
0
  6
Continuous
 62
     7
370
    25
100
AcDbPolyline
 90
       11
 70
   128
 43
0.0
 10
370.3045869018
 20
83.2062724363
 10
370.2608853614
 20
83.1730525216
 10
370.2214614628
 20
83.127097646
 10
370.19017454
 20
83.0729061938
 10
370.1700870886
 20
83.0157843877
 10
370.1631655224
 20
82.9613231184
 10
370.1700870886
 20
82.9148557528
 10
370.19017454
 20
82.8809264244
 10
370.2214614628
 20
82.8628580843
 10
370.2608853614
 20
82.8624210732
 10
370.3045869018
 20
82.8796578831
  0
LINE
  5
166
330
1F
100
AcDbEntity
  8
0
  6
Continuous
 62
     7
370
    25
100
AcDbLine
 10
360.5818687132
 20
78.0833921779
 30
0.0
 11
363.1274530159
 21
79.5529267159
 31
0.0
  0
LWPOLYLINE
  5
167
330
1F
100
AcDbEntity
  8
0
  6
Continuous
 62
     7
370
    25
100
AcDbPolyline
 90
       11
 70
   128
 43
0.0
 10
363.1274530159
 20
79.5529267159
 10
363.1711545563
 20
79.5861466306
 10
363.2105781915
 20
79.6321037876
 10
363.2418653777
 20
79.6862929584
 10
363.2619525657
 20
79.7434146124
 10
363.2688746587
 20
79.7978761859
 10
363.2619525657
 20
79.8443456808
 10
363.2418653777
 20
79.8782727278
 10
363.2105781915
 20
79.8963409158
 10
363.1711545563
 20
79.8967780789
 10
363.1274530159
 20
79.8795437026
  0
LINE
  5
168
330
1F
100
AcDbEntity
  8
0
  6
Continuous
 62
     7
370
    25
100
AcDbLine
 10
363.1274530159
 20
79.8795437026
 30
0.0
 11
360.5818687132
 21
78.4100091645
 31
0.0
  0
LWPOLYLINE
  5
169
330
1F
100
AcDbEntity
  8
0
  6
Continuous
 62
     7
370
    25
100
AcDbPolyline
 90
       11
 70
   128
 43
0.0
 10
360.5818687132
 20
78.4100091645
 10
360.5381671728
 20
78.3767868164
 10
360.4987430107
 20
78.3308317887
 10
360.4674563514
 20
78.2766404886
 10
360.4473691634
 20
78.219521268
 10
360.4404470704
 20
78.1650596946
 10
360.4473691634
 20
78.1185901996
 10
360.4674563514
 20
78.0846607192
 10
360.4987430107
 20
78.0665946605
 10
360.5381671728
 20
78.0661553681
 10
360.5818687132
 20
78.0833921779
  0
LINE
  5
16A
330
1F
100
AcDbEntity
  8
0
  6
Continuous
 62
     7
370
    25
100
AcDbLine
 10
364.4709559887
 20
80.3285144732
 30
0.0
 11
367.0165403572
 21
81.7980490493
 31
0.0
  0
LWPOLYLINE
  5
16B
330
1F
100
AcDbEntity
  8
0
  6
Continuous
 62
     7
370
    25
100
AcDbPolyline
 90
       11
 70
   128
 43
0.0
 10
367.0165403572
 20
81.7980490493
 10
367.0602419634
 20
81.831269002
 10
367.0996657304
 20
81.877226235
 10
367.1309526531
 20
81.9314152537
 10
367.1510400387
 20
81.9885370218
 10
367.1579617366
 20
82.0429983672
 10
367.1510400387
 20
82.0894680902
 10
367.1309526531
 20
82.1233950231
 10
367.0996657304
 20
82.1414633632
 10
367.0602419634
 20
82.1419004503
 10
367.0165403572
 20
82.1246660359
  0
LINE
  5
16C
330
1F
100
AcDbEntity
  8
0
  6
Continuous
 62
     7
370
    25
100
AcDbLine
 10
367.0165403572
 20
82.1246660359
 30
0.0
 11
364.4709559887
 21
80.6551314599
 31
0.0
  0
LWPOLYLINE
  5
16D
330
1F
100
AcDbEntity
  8
0
  6
Continuous
 62
     7
370
    25
100
AcDbPolyline
 90
       11
 70
   128
 43
0.0
 10
364.4709559887
 20
80.6551314599
 10
364.4272544483
 20
80.6219091117
 10
364.3878305496
 20
80.5759542362
 10
364.3565436269
 20
80.521762784
 10
364.3364561754
 20
80.4646434113
 10
364.3295346092
 20
80.410182142
 10
364.3364561754
 20
80.3637123429
 10
364.3565436269
 20
80.3297830145
 10
364.3878305496
 20
80.3117171079
 10
364.4272544483
 20
80.3112776634
 10
364.4709559887
 20
80.3285144732
  0
LINE
  5
16E
330
1F
100
AcDbEntity
  8
0
  6
Continuous
 62
     7
370
    25
100
AcDbLine
 10
368.3600432312
 20
82.5736367496
 30
0.0
 11
370.9056275668
 21
84.0431713066
 31
0.0
  0
LWPOLYLINE
  5
16F
330
1F
100
AcDbEntity
  8
0
  6
Continuous
 62
     7
370
    25
100
AcDbPolyline
 90
       11
 70
   128
 43
0.0
 10
370.9056275668
 20
84.0431713066
 10
370.9493293706
 20
84.0763913734
 10
370.9887530059
 20
84.1223485303
 10
371.0200399286
 20
84.1765375491
 10
371.04012738
 20
84.2336593552
 10
371.0470489462
 20
84.2881206245
 10
371.04012738
 20
84.3345904236
 10
371.0200399286
 20
84.3685173185
 10
370.9887530059
 20
84.3865856586
 10
370.9493293706
 20
84.3870228217
 10
370.9056275668
 20
84.3697882933
  0
LINE
  5
170
330
1F
100
AcDbEntity
  8
0
  6
Continuous
 62
     7
370
    25
100
AcDbLine
 10
370.9056275668
 20
84.3697882933
 30
0.0
 11
368.3600432312
 21
82.9002537362
 31
0.0
  0
LWPOLYLINE
  5
171
330
1F
100
AcDbEntity
  8
0
  6
Continuous
 62
     7
370
    25
100
AcDbPolyline
 90
       11
 70
   128
 43
0.0
 10
368.3600432312
 20
82.9002537362
 10
368.3163416249
 20
82.86703135
 10
368.276917858
 20
82.8210765505
 10
368.2456309682
 20
82.7668851173
 10
368.2255435497
 20
82.7097657637
 10
368.2186218847
 20
82.6553044373
 10
368.2255435497
 20
82.6088346953
 10
368.2456309682
 20
82.5749053479
 10
368.276917858
 20
82.5568394223
 10
368.3163416249
 20
82.5563999017
 10
368.3600432312
 20
82.5736367496
  0
LINE
  5
172
330
1F
100
AcDbEntity
  8
0
  6
Continuous
 62
     7
370
    25
100
AcDbLine
 10
375.2614053153
 20
87.8315114949
 30
0.0
 11
375.2684765028
 21
87.8274293852
 31
0.0
  0
LINE
  5
173
330
1F
100
AcDbEntity
  8
0
  6
Continuous
 62
     7
370
    25
100
AcDbLine
 10
375.2614053153
 20
87.8315114949
 30
0.0
 11
359.3373607851
 21
78.6387562609
 31
0.0
  0
LINE
  5
174
330
1F
100
AcDbEntity
  8
0
  6
Continuous
 62
     7
370
    25
100
AcDbLine
 10
360.1539891656
 20
75.7215409233
 30
0.0
 11
360.6490439409
 21
75.4357518847
 31
0.0
  0
LWPOLYLINE
  5
175
330
1F
100
AcDbEntity
  8
0
  6
Continuous
 62
     7
370
    25
100
AcDbPolyline
 90
        3
 70
   128
 43
0.0
 10
359.618110426
 20
75.4121849831
 10
359.6388793393
 20
75.3961734539
 10
359.6839680378
 20
75.3534934798
  0
ARC
  5
176
330
1F
100
AcDbEntity
  8
0
  6
Continuous
 62
     7
370
    25
100
AcDbCircle
 10
359.1885278538
 20
75.4111311429
 30
0.0
 40
0.2059213922315274
100
AcDbArc
 50
294.4385814848
 51
313.6519802194
  0
LINE
  5
177
330
1F
100
AcDbEntity
  8
0
  6
Continuous
 62
     7
370
    25
100
AcDbLine
 10
358.1770259086
 20
74.8874544196
 30
0.0
 11
358.1766581773
 21
74.9026532982
 31
0.0
  0
LINE
  5
178
330
1F
100
AcDbEntity
  8
0
  6
Continuous
 62
     7
370
    25
100
AcDbLine
 10
358.1770259086
 20
74.810176789
 30
0.0
 11
358.1766581773
 21
74.8253756675
 31
0.0
  0
LWPOLYLINE
  5
179
330
1F
100
AcDbEntity
  8
0
  6
Continuous
 62
     7
370
    25
100
AcDbPolyline
 90
        8
 70
   128
 43
0.0
 10
359.5338499197
 20
75.2022099733
 10
359.5332809372
 20
75.1896503845
 10
359.5196859444
 20
75.1401002886
 10
359.4885425843
 20
75.0932639957
 10
359.4412111466
 20
75.0511895558
 10
359.3797610415
 20
75.0157151652
 10
359.3068786037
 20
74.9883916119
 10
359.2737211511
 20
74.9796735615
  0
LWPOLYLINE
  5
17A
330
1F
100
AcDbEntity
  8
0
  6
Continuous
 62
     7
370
    25
100
AcDbPolyline
 90
        8
 70
   128
 43
0.0
 10
359.5309681289
 20
75.3618788691
 10
359.5332809372
 20
75.3211119087
 10
359.5196859444
 20
75.2715618128
 10
359.4885425843
 20
75.2247255199
 10
359.4412111466
 20
75.18265108
 10
359.3797610415
 20
75.1471766894
 10
359.3068786037
 20
75.1198531361
 10
359.2737211511
 20
75.1111350857
  0
LWPOLYLINE
  5
17B
330
1F
100
AcDbEntity
  8
0
  6
Continuous
 62
     7
370
    25
100
AcDbPolyline
 90
       16
 70
   128
 43
0.0
 10
371.7329428076
 20
81.8594393858
 10
371.7407768531
 20
81.8566322384
 10
371.8294301147
 20
81.8356603914
 10
371.9250681629
 20
81.831803171
 10
372.0262506289
 20
81.8451172907
 10
372.131454958
 20
81.8754051732
 10
372.2390959018
 20
81.9222043016
 10
372.3475539675
 20
81.9848158102
 10
372.4551949113
 20
82.0622962702
 10
372.5603992404
 20
82.1534747205
 10
372.6615817064
 20
82.2569833894
 10
372.7572197546
 20
82.3712619499
 10
372.8458730162
 20
82.4945906741
 10
372.9262070168
 20
82.6251089867
 10
372.9970110882
 20
82.7608574407
 10
373.0220552724
 20
82.8153361731
  0
LWPOLYLINE
  5
17C
330
1F
100
AcDbEntity
  8
0
  6
Continuous
 62
     7
370
    25
100
AcDbPolyline
 90
       10
 70
   128
 43
0.0
 10
371.9596001295
 20
82.2019938745
 10
372.0019060824
 20
82.1966551056
 10
372.0807143671
 20
82.2000071316
 10
372.1639586076
 20
82.2194720375
 10
372.2499007732
 20
82.2546378155
 10
372.3367490961
 20
82.3047742851
 10
372.4226912617
 20
82.3688352195
 10
372.5059355022
 20
82.4454820678
 10
372.5847437869
 20
82.5331201505
 10
372.6270497398
 20
82.587304333
  0
ARC
  5
17D
330
1F
100
AcDbEntity
  8
0
  6
Continuous
 62
     7
370
    25
100
AcDbCircle
 10
371.8372595267
 20
83.0213547803
 30
0.0
 40
0.801008599895584
100
AcDbArc
 50
284.2043863557
 51
315.7902371117
  0
LINE
  5
17E
330
1F
100
AcDbEntity
  8
0
  6
Continuous
 62
     8
370
    25
100
AcDbLine
 10
324.6431672211
 20
175.6960931569
 30
0.0
 11
355.0487593179
 21
158.1433184607
 31
0.0
  0
LINE
  5
17F
330
1F
100
AcDbEntity
  8
0
  6
Continuous
 62
     8
370
    25
100
AcDbLine
 10
324.6431672211
 20
174.2671432319
 30
0.0
 11
355.0487593179
 21
156.7143685357
 31
0.0
  0
LINE
  5
180
330
1F
100
AcDbEntity
  8
0
  6
Continuous
 62
     8
370
    25
100
AcDbLine
 10
324.6431672211
 20
172.8381981738
 30
0.0
 11
355.0487593179
 21
155.2854234777
 31
0.0
  0
LINE
  5
181
330
1F
100
AcDbEntity
  8
0
  6
Continuous
 62
     8
370
    25
100
AcDbLine
 10
324.6431672211
 20
171.4092531158
 30
0.0
 11
355.0487593179
 21
153.8564784196
 31
0.0
  0
LINE
  5
182
330
1F
100
AcDbEntity
  8
0
  6
Continuous
 62
     8
370
    25
100
AcDbLine
 10
324.6431672211
 20
169.9803056242
 30
0.0
 11
355.0487593179
 21
152.4275309281
 31
0.0
  0
LINE
  5
183
330
1F
100
AcDbEntity
  8
0
  6
Continuous
 62
     8
370
    25
100
AcDbLine
 10
359.4865611556
 20
159.468498136
 30
0.0
 11
359.6279817448
 21
159.3868577676
 31
0.0
  0
LINE
  5
184
330
1F
100
AcDbEntity
  8
0
  6
Continuous
 62
     8
370
    25
100
AcDbLine
 10
361.8906774539
 20
161.0197004146
 30
0.0
 11
362.1735660475
 21
160.8563923056
 31
0.0
  0
LINE
  5
185
330
1F
100
AcDbEntity
  8
0
  6
Continuous
 62
     8
370
    25
100
AcDbLine
 10
359.4865611556
 20
157.7129360913
 30
0.0
 11
359.6279817448
 21
157.6312957229
 31
0.0
  0
LINE
  5
186
330
1F
100
AcDbEntity
  8
0
  6
Continuous
 62
     8
370
    25
100
AcDbLine
 10
361.8906774539
 20
159.2641383699
 30
0.0
 11
362.1735660475
 21
159.1008302609
 31
0.0
  0
LINE
  5
187
330
1F
100
AcDbEntity
  8
0
  6
Continuous
 62
     8
370
    25
100
AcDbLine
 10
359.4865611556
 20
155.9573740466
 30
0.0
 11
359.6279817448
 21
155.8757336782
 31
0.0
  0
LINE
  5
188
330
1F
100
AcDbEntity
  8
0
  6
Continuous
 62
     8
370
    25
100
AcDbLine
 10
361.8906774539
 20
157.5085763252
 30
0.0
 11
362.1735660475
 21
157.3452682162
 31
0.0
  0
LINE
  5
189
330
1F
100
AcDbEntity
  8
0
  6
Continuous
 62
     8
370
    25
100
AcDbLine
 10
359.4865611556
 20
154.2018095684
 30
0.0
 11
359.6279817448
 21
154.1201692
 31
0.0
  0
LINE
  5
18A
330
1F
100
AcDbEntity
  8
0
  6
Continuous
 62
     8
370
    25
100
AcDbLine
 10
361.8906774539
 20
155.753011847
 30
0.0
 11
362.1735660475
 21
155.589703738
 31
0.0
  0
LINE
  5
18B
330
1F
100
AcDbEntity
  8
0
  6
Continuous
 62
     8
370
    25
100
AcDbLine
 10
370.5160126161
 20
165.8356649352
 30
0.0
 11
370.6574332053
 21
165.7540245668
 31
0.0
  0
LINE
  5
18C
330
1F
100
AcDbEntity
  8
0
  6
Continuous
 62
     8
370
    25
100
AcDbLine
 10
370.9048747187
 20
166.2234857299
 30
0.0
 11
371.1877633123
 21
166.0601776209
 31
0.0
  0
LINE
  5
18D
330
1F
100
AcDbEntity
  8
0
  6
Continuous
 62
     8
370
    25
100
AcDbLine
 10
371.9302261469
 20
166.6520730288
 30
0.0
 11
372.071646736
 21
166.5704326604
 31
0.0
  0
LINE
  5
18E
330
1F
100
AcDbEntity
  8
0
  6
Continuous
 62
     8
370
    25
100
AcDbLine
 10
370.5160126161
 20
164.0801028905
 30
0.0
 11
370.6574332053
 21
163.9984625221
 31
0.0
  0
LINE
  5
18F
330
1F
100
AcDbEntity
  8
0
  6
Continuous
 62
     8
370
    25
100
AcDbLine
 10
374.3343427086
 20
168.2032754594
 30
0.0
 11
374.6172313022
 21
168.0399673505
 31
0.0
  0
LINE
  5
190
330
1F
100
AcDbEntity
  8
0
  6
Continuous
 62
     8
370
    25
100
AcDbLine
 10
370.9048747187
 20
164.4679236851
 30
0.0
 11
371.1877633123
 21
164.3046155762
 31
0.0
  0
LINE
  5
191
330
1F
100
AcDbEntity
  8
0
  6
Continuous
 62
     8
370
    25
100
AcDbLine
 10
371.9302261469
 20
164.896510984
 30
0.0
 11
372.071646736
 21
164.8148706157
 31
0.0
  0
LINE
  5
192
330
1F
100
AcDbEntity
  8
0
  6
Continuous
 62
     8
370
    25
100
AcDbLine
 10
370.5160126161
 20
162.3245408458
 30
0.0
 11
370.6574332053
 21
162.2429004774
 31
0.0
  0
LINE
  5
193
330
1F
100
AcDbEntity
  8
0
  6
Continuous
 62
     8
370
    25
100
AcDbLine
 10
374.3343427086
 20
166.4477134147
 30
0.0
 11
374.6172313022
 21
166.2844053058
 31
0.0
  0
LINE
  5
194
330
1F
100
AcDbEntity
  8
0
  6
Continuous
 62
     8
370
    25
100
AcDbLine
 10
370.9048747187
 20
162.7123616404
 30
0.0
 11
371.1877633123
 21
162.5490535315
 31
0.0
  0
LINE
  5
195
330
1F
100
AcDbEntity
  8
0
  6
Continuous
 62
     8
370
    25
100
AcDbLine
 10
371.9302261469
 20
163.1409489393
 30
0.0
 11
372.071646736
 21
163.059308571
 31
0.0
  0
LINE
  5
196
330
1F
100
AcDbEntity
  8
0
  6
Continuous
 62
     8
370
    25
100
AcDbLine
 10
370.5160126161
 20
160.5689763676
 30
0.0
 11
370.6574332053
 21
160.4873359992
 31
0.0
  0
LINE
  5
197
330
1F
100
AcDbEntity
  8
0
  6
Continuous
 62
     8
370
    25
100
AcDbLine
 10
374.3343427086
 20
164.69215137
 30
0.0
 11
374.6172313022
 21
164.5288432611
 31
0.0
  0
LINE
  5
198
330
1F
100
AcDbEntity
  8
0
  6
Continuous
 62
     8
370
    25
100
AcDbLine
 10
370.9048747187
 20
160.9567971622
 30
0.0
 11
371.1877633123
 21
160.7934890533
 31
0.0
  0
LINE
  5
199
330
1F
100
AcDbEntity
  8
0
  6
Continuous
 62
     8
370
    25
100
AcDbLine
 10
371.9302261469
 20
161.3853844611
 30
0.0
 11
372.071646736
 21
161.3037440928
 31
0.0
  0
LINE
  5
19A
330
1F
100
AcDbEntity
  8
0
  6
Continuous
 62
     8
370
    25
100
AcDbLine
 10
374.3343427086
 20
162.9365868918
 30
0.0
 11
374.6172313022
 21
162.7732787829
 31
0.0
  0
LINE
  5
19B
330
1F
100
AcDbEntity
  8
0
  6
Continuous
 62
     8
370
    25
100
AcDbLine
 10
357.9649945968
 20
151.3433745889
 30
0.0
 11
357.9649945968
 21
151.3845296238
 31
0.0
  0
LINE
  5
19C
330
1F
100
AcDbEntity
  8
0
  6
Continuous
 62
     8
370
    25
100
AcDbLine
 10
358.0009289998
 20
151.4457588925
 30
0.0
 11
358.0009289998
 21
151.4865805405
 31
0.0
  0
LINE
  5
19D
330
1F
100
AcDbEntity
  8
0
  6
Continuous
 62
     8
370
    25
100
AcDbLine
 10
360.440448124
 20
78.1650325462
 30
0.0
 11
360.5818687132
 21
78.0833921779
 31
0.0
  0
LINE
  5
19E
330
1F
100
AcDbEntity
  8
0
  6
Continuous
 62
     8
370
    25
100
AcDbLine
 10
362.8445644224
 20
79.7162348248
 30
0.0
 11
363.1274530159
 21
79.5529267159
 31
0.0
  0
LWPOLYLINE
  5
19F
330
1F
100
AcDbEntity
  8
0
  6
Continuous
 62
     8
370
    25
100
AcDbPolyline
 90
       29
 70
   128
 43
0.0
 10
359.789104932
 20
75.3089581732
 10
359.8532081812
 20
75.2650105614
 10
359.9231424469
 20
75.2028427867
 10
359.9774086217
 20
75.1356616389
 10
360.014950927
 20
75.0647736848
 10
360.0350375882
 20
74.9915593966
 10
360.0372792737
 20
74.9174436502
 10
360.0216301489
 20
74.8438695694
 10
359.988396832
 20
74.7722684171
 10
359.9382246967
 20
74.7040346555
 10
359.8720915498
 20
74.6404955329
 10
359.7912828704
 20
74.5828882734
 10
359.6973738967
 20
74.5323339213
 10
359.5921895874
 20
74.4898166598
 10
359.4777803866
 20
74.456163738
 10
359.3563705942
 20
74.4320302644
 10
359.2303241217
 20
74.4178867368
 10
359.1020954962
 20
74.4140065732
 10
358.9741782304
 20
74.4204679366
 10
358.849064257
 20
74.4371424817
 10
358.7291880831
 20
74.4637069122
 10
358.6168825369
 20
74.4996441974
 10
358.5143329324
 20
74.5442548251
 10
358.4235370303
 20
74.5966701836
 10
358.3462607836
 20
74.6558708102
 10
358.2840088347
 20
74.720703422
 10
358.2379918518
 20
74.7899070724
 10
358.2091075628
 20
74.8621338319
 10
358.2022476364
 20
74.8929388268
  0
LWPOLYLINE
  5
1A0
330
1F
100
AcDbEntity
  8
0
  6
Continuous
 62
     8
370
    25
100
AcDbPolyline
 90
       13
 70
   128
 43
0.0
 10
359.6839680378
 20
75.3534934798
 10
359.693629676
 20
75.3423131465
 10
359.7318252575
 20
75.2838850247
 10
359.7523660509
 20
75.2225715674
 10
359.7546625274
 20
75.1601358491
 10
359.7386467249
 20
75.0983743998
 10
359.704782259
 20
75.039063372
 10
359.6540406144
 20
74.9839095754
 10
359.5878827063
 20
74.9344996861
 10
359.5082119917
 20
74.8922549301
 10
359.4173196787
 20
74.8583909382
 10
359.3178215061
 20
74.8338812486
 10
359.273721678
 20
74.8264947044
  0
LWPOLYLINE
  5
1A1
330
1F
100
AcDbEntity
  8
0
  6
Continuous
 62
     8
370
    25
100
AcDbPolyline
 90
       25
 70
   128
 43
0.0
 10
360.0596207913
 20
74.8978367007
 10
360.0591087071
 20
74.8840970654
 10
360.0459678465
 20
74.810304311
 10
360.0155441439
 20
74.7382314442
 10
359.9684028939
 20
74.6692218324
 10
359.905423385
 20
74.604560449
 10
359.8277783533
 20
74.5454522797
 10
359.7369150163
 20
74.4929979917
 10
359.6345255699
 20
74.4481744691
 10
359.5225166321
 20
74.4118171725
 10
359.4029755257
 20
74.3846031081
 10
359.278128131
 20
74.3670398784
 10
359.150301481
 20
74.3594538211
 10
359.0218758189
 20
74.3619866634
 10
358.8952445589
 20
74.374590656
 10
358.7727647634
 20
74.3970316143
 10
358.6567192112
 20
74.4288913519
 10
358.549268982
 20
74.4695768039
 10
358.4524165778
 20
74.5183291519
 10
358.3679658837
 20
74.5742408547
 10
358.297490031
 20
74.6362699435
 10
358.2423003134
 20
74.703262223
 10
358.203428275
 20
74.7739676957
 10
358.1815941001
 20
74.8470709743
 10
358.1770259086
 20
74.8874544196
  0
LWPOLYLINE
  5
1A2
330
1F
100
AcDbEntity
  8
0
  6
Continuous
 62
     8
370
    25
100
AcDbPolyline
 90
       25
 70
   128
 43
0.0
 10
360.0596576698
 20
74.8253759717
 10
360.0591087071
 20
74.8068194347
 10
360.0459678465
 20
74.7330266804
 10
360.0155441439
 20
74.6609538136
 10
359.9684028939
 20
74.5919442017
 10
359.905423385
 20
74.5272828183
 10
359.8277783533
 20
74.4681746491
 10
359.7369150163
 20
74.4157203611
 10
359.6345255699
 20
74.3708968384
 10
359.5225166321
 20
74.3345395418
 10
359.4029755257
 20
74.3073254774
 10
359.278128131
 20
74.2897622478
 10
359.150301481
 20
74.2821761905
 10
359.0218758189
 20
74.2847090327
 10
358.8952445589
 20
74.2973130253
 10
358.7727647634
 20
74.3197539837
 10
358.6567192112
 20
74.3516137212
 10
358.549268982
 20
74.3922991733
 10
358.4524165778
 20
74.4410515212
 10
358.3679658837
 20
74.4969632241
 10
358.297490031
 20
74.5589923128
 10
358.2423003134
 20
74.6259845924
 10
358.203428275
 20
74.696690065
 10
358.1815941001
 20
74.7697933437
 10
358.1770259086
 20
74.810176789
  0
LWPOLYLINE
  5
1A3
330
1F
100
AcDbEntity
  8
0
  6
Continuous
 62
     8
370
    25
100
AcDbPolyline
 90
       13
 70
   128
 43
0.0
 10
359.5935035154
 20
75.3979803126
 10
359.5964732877
 20
75.3955548303
 10
359.6473645536
 20
75.3446686661
 10
359.6821757431
 20
75.2894546506
 10
359.6998505509
 20
75.2315888758
 10
359.6998505509
 20
75.1728310708
 10
359.6821767968
 20
75.114965296
 10
359.6473645536
 20
75.0597506722
 10
359.596472234
 20
75.0088651163
 10
359.5310482079
 20
74.9638533336
 10
359.453077065
 20
74.9260848473
 10
359.364931146
 20
74.8967053366
 10
359.2737211511
 20
74.8773063437
  0
LINE
  5
1A4
330
1F
100
AcDbEntity
  8
0
  6
Continuous
 62
     8
370
    25
100
AcDbLine
 10
362.3849914983
 20
78.4710535087
 30
0.0
 11
362.5264120875
 21
78.3894131403
 31
0.0
  0
LINE
  5
1A5
330
1F
100
AcDbEntity
  8
0
  6
Continuous
 62
     8
370
    25
100
AcDbLine
 10
364.7891080601
 20
80.0222559393
 30
0.0
 11
365.0719966536
 21
79.8589478304
 31
0.0
  0
LINE
  5
1A6
330
1F
100
AcDbEntity
  8
0
  6
Continuous
 62
     8
370
    25
100
AcDbLine
 10
364.3295353995
 20
80.4101548416
 30
0.0
 11
364.4709559887
 21
80.3285144732
 31
0.0
  0
LINE
  5
1A7
330
1F
100
AcDbEntity
  8
0
  6
Continuous
 62
     8
370
    25
100
AcDbLine
 10
366.7336517637
 20
81.9613571582
 30
0.0
 11
367.0165403572
 21
81.7980490493
 31
0.0
  0
LINE
  5
1A8
330
1F
100
AcDbEntity
  8
0
  6
Continuous
 62
     8
370
    25
100
AcDbLine
 10
366.2740790372
 20
80.7161759561
 30
0.0
 11
366.4154996264
 21
80.6345355877
 31
0.0
  0
LINE
  5
1A9
330
1F
100
AcDbEntity
  8
0
  6
Continuous
 62
     8
370
    25
100
AcDbLine
 10
368.6781954672
 20
82.2673783107
 30
0.0
 11
368.9610840608
 21
82.1040702018
 31
0.0
  0
LINE
  5
1AA
330
1F
100
AcDbEntity
  8
0
  6
Continuous
 62
     8
370
    25
100
AcDbLine
 10
368.218622642
 20
82.6552771179
 30
0.0
 11
368.3600432312
 21
82.5736367496
 31
0.0
  0
LINE
  5
1AB
330
1F
100
AcDbEntity
  8
0
  6
Continuous
 62
     8
370
    25
100
AcDbLine
 10
370.6227389733
 20
84.2064794155
 30
0.0
 11
370.9056275668
 21
84.0431713066
 31
0.0
  0
LINE
  5
1AC
330
1F
100
AcDbEntity
  8
0
  6
Continuous
 62
     8
370
    25
100
AcDbLine
 10
370.1631663127
 20
82.9612982514
 30
0.0
 11
370.3045869018
 21
82.8796578831
 31
0.0
  0
LINE
  5
1AD
330
1F
100
AcDbEntity
  8
0
  6
Continuous
 62
     8
370
    25
100
AcDbLine
 10
372.5672828744
 20
84.5125006821
 30
0.0
 11
372.8501714679
 21
84.3491925732
 31
0.0
  0
LINE
  5
1AE
330
1F
100
AcDbEntity
  8
0
  6
Continuous
 62
     7
370
    25
100
AcDbLine
 10
116.0250000358
 20
276.7546444035
 30
0.0
 11
72.9749999642
 21
276.7546444035
 31
0.0
  0
LINE
  5
1AF
330
1F
100
AcDbEntity
  8
0
  6
Continuous
 62
     7
370
    25
100
AcDbLine
 10
116.0250000358
 20
282.0046453571
 30
0.0
 11
72.9749999642
 21
282.0046453571
 31
0.0
  0
LINE
  5
1B0
330
1F
100
AcDbEntity
  8
0
  6
Continuous
 62
     7
370
    25
100
AcDbLine
 10
116.0250000358
 20
278.5046427345
 30
0.0
 11
72.9749999642
 21
278.5046427345
 31
0.0
  0
LINE
  5
1B1
330
1F
100
AcDbEntity
  8
0
  6
Continuous
 62
     7
370
    25
100
AcDbLine
 10
116.0250000358
 20
280.2546470261
 30
0.0
 11
72.9749999642
 21
280.2546470261
 31
0.0
  0
LINE
  5
1B2
330
1F
100
AcDbEntity
  8
0
  6
Continuous
 62
     7
370
    25
100
AcDbLine
 10
116.0250000358
 20
275.0046460724
 30
0.0
 11
72.9749999642
 21
275.0046460724
 31
0.0
  0
LINE
  5
1B3
330
1F
100
AcDbEntity
  8
0
  6
Continuous
 62
     7
370
    25
100
AcDbLine
 10
75.0250003934
 20
203.890000174
 30
0.0
 11
113.9749996066
 21
203.890000174
 31
0.0
  0
LINE
  5
1B4
330
1F
100
AcDbEntity
  8
0
  6
Continuous
 62
     7
370
    25
100
AcDbLine
 10
113.9749996066
 20
205.3900002337
 30
0.0
 11
75.0250003934
 21
205.3900002337
 31
0.0
  0
LINE
  5
1B5
330
1F
100
AcDbEntity
  8
0
  6
Continuous
 62
     7
370
    25
100
AcDbLine
 10
75.1500002742
 20
262.3400001621
 30
0.0
 11
75.1500002742
 21
212.5400005674
 31
0.0
  0
LINE
  5
1B6
330
1F
100
AcDbEntity
  8
0
  6
Continuous
 62
     7
370
    25
100
AcDbLine
 10
76.6500003338
 20
212.5400005674
 30
0.0
 11
76.6500003338
 21
262.3400001621
 31
0.0
  0
LINE
  5
1B7
330
1F
100
AcDbEntity
  8
0
  6
Continuous
 62
     7
370
    25
100
AcDbLine
 10
72.1850000024
 20
182.5049995279
 30
0.0
 11
72.1850000024
 21
272.4900006151
 31
0.0
  0
LINE
  5
1B8
330
1F
100
AcDbEntity
  8
0
  6
Continuous
 62
     7
370
    25
100
AcDbLine
 10
73.0825222731
 20
207.1400000548
 30
0.0
 11
73.0825222731
 21
207.5399993753
 31
0.0
  0
LINE
  5
1B9
330
1F
100
AcDbEntity
  8
0
  6
Continuous
 62
     7
370
    25
100
AcDbLine
 10
73.0825222731
 20
272.3399995661
 30
0.0
 11
73.0825222731
 21
272.4900006151
 31
0.0
  0
LINE
  5
1BA
330
1F
100
AcDbEntity
  8
0
  6
Continuous
 62
     7
370
    25
100
AcDbLine
 10
116.8149999976
 20
272.4900006151
 30
0.0
 11
116.8149999976
 21
182.5049995279
 31
0.0
  0
LINE
  5
1BB
330
1F
100
AcDbEntity
  8
0
  6
Continuous
 62
     7
370
    25
100
AcDbLine
 10
115.9174777269
 20
272.4900006151
 30
0.0
 11
115.9174777269
 21
272.3399995661
 31
0.0
  0
LINE
  5
1BC
330
1F
100
AcDbEntity
  8
0
  6
Continuous
 62
     7
370
    25
100
AcDbLine
 10
115.9174777269
 20
207.5399993753
 30
0.0
 11
115.9174777269
 21
207.1400000548
 31
0.0
  0
ARC
  5
1BD
330
1F
100
AcDbEntity
  8
0
  6
Continuous
 62
     7
370
    25
100
AcDbCircle
 10
116.3415
 20
176.6596408368
 30
0.0
 40
0.0750000000000029
100
AcDbArc
 50
0.0
 51
44.0751062253
  0
ARC
  5
1BE
330
1F
100
AcDbEntity
  8
0
  6
Continuous
 62
     7
370
    25
100
AcDbCircle
 10
114.6085
 20
176.6596408368
 30
0.0
 40
0.0750000000000171
100
AcDbArc
 50
135.9248937747
 51
180.0
  0
ARC
  5
1BF
330
1F
100
AcDbEntity
  8
0
  6
Continuous
 62
     7
370
    25
100
AcDbCircle
 10
74.3915
 20
176.565
 30
0.0
 40
0.0750000000000171
100
AcDbArc
 50
270.0
 51
0.0
  0
ARC
  5
1C0
330
1F
100
AcDbEntity
  8
0
  6
Continuous
 62
     7
370
    25
100
AcDbCircle
 10
72.6585
 20
176.565
 30
0.0
 40
0.0750000000000171
100
AcDbArc
 50
180.0
 51
270.0
  0
ARC
  5
1C1
330
1F
100
AcDbEntity
  8
0
  6
Continuous
 62
     7
370
    25
100
AcDbCircle
 10
74.3915
 20
176.6596408368
 30
0.0
 40
0.0750000000000171
100
AcDbArc
 50
0.0
 51
44.0751062253
  0
ARC
  5
1C2
330
1F
100
AcDbEntity
  8
0
  6
Continuous
 62
     7
370
    25
100
AcDbCircle
 10
72.6585
 20
176.6596408368
 30
0.0
 40
0.0750000000000029
100
AcDbArc
 50
135.9248937747
 51
180.0
  0
LINE
  5
1C3
330
1F
100
AcDbEntity
  8
0
  6
Continuous
 62
     7
370
    25
100
AcDbLine
 10
116.4164997339
 20
176.5650003052
 30
0.0
 11
116.4164997339
 21
176.6596405602
 31
0.0
  0
LINE
  5
1C4
330
1F
100
AcDbEntity
  8
0
  6
Continuous
 62
     7
370
    25
100
AcDbLine
 10
114.5334995985
 20
176.6596405602
 30
0.0
 11
114.5334995985
 21
176.5650003052
 31
0.0
  0
ARC
  5
1C5
330
1F
100
AcDbEntity
  8
0
  6
Continuous
 62
     7
370
    25
100
AcDbCircle
 10
116.3415
 20
176.565
 30
0.0
 40
0.0750000000000171
100
AcDbArc
 50
270.0
 51
0.0
  0
ARC
  5
1C6
330
1F
100
AcDbEntity
  8
0
  6
Continuous
 62
     7
370
    25
100
AcDbCircle
 10
114.6085
 20
176.565
 30
0.0
 40
0.0750000000000171
100
AcDbArc
 50
180.0
 51
270.0
  0
LINE
  5
1C7
330
1F
100
AcDbEntity
  8
0
  6
Continuous
 62
     7
370
    25
100
AcDbLine
 10
74.4665004015
 20
176.5650003052
 30
0.0
 11
74.4665004015
 21
176.6596405602
 31
0.0
  0
LINE
  5
1C8
330
1F
100
AcDbEntity
  8
0
  6
Continuous
 62
     7
370
    25
100
AcDbLine
 10
72.5835002661
 20
176.6596405602
 30
0.0
 11
72.5835002661
 21
176.5650003052
 31
0.0
  0
LINE
  5
1C9
330
1F
100
AcDbEntity
  8
0
  6
Continuous
 62
     7
370
    25
100
AcDbLine
 10
74.4453824759
 20
176.7118095255
 30
0.0
 11
74.162796855
 21
177.0036696291
 31
0.0
  0
LINE
  5
1CA
330
1F
100
AcDbEntity
  8
0
  6
Continuous
 62
     7
370
    25
100
AcDbLine
 10
72.8872038126
 20
177.0036696291
 30
0.0
 11
72.6046181917
 21
176.7118095255
 31
0.0
  0
LINE
  5
1CB
330
1F
100
AcDbEntity
  8
0
  6
Continuous
 62
     7
370
    25
100
AcDbLine
 10
116.3953818083
 20
176.7118095255
 30
0.0
 11
116.1127961874
 21
177.0036696291
 31
0.0
  0
LINE
  5
1CC
330
1F
100
AcDbEntity
  8
0
  6
Continuous
 62
     7
370
    25
100
AcDbLine
 10
114.837203145
 20
177.0036696291
 30
0.0
 11
114.5546175241
 21
176.7118095255
 31
0.0
  0
ARC
  5
1CD
330
1F
100
AcDbEntity
  8
0
  6
Continuous
 62
     7
370
    25
100
AcDbCircle
 10
116.0589145804
 20
176.9515
 30
0.0
 40
0.0750000000000171
100
AcDbArc
 50
44.0751062253
 51
90.0
  0
ARC
  5
1CE
330
1F
100
AcDbEntity
  8
0
  6
Continuous
 62
     7
370
    25
100
AcDbCircle
 10
114.8910854196
 20
176.9515
 30
0.0
 40
0.0750000000000171
100
AcDbArc
 50
90.0
 51
135.9248937747
  0
ARC
  5
1CF
330
1F
100
AcDbEntity
  8
0
  6
Continuous
 62
     7
370
    25
100
AcDbCircle
 10
74.1089145804
 20
176.9515
 30
0.0
 40
0.0750000000000171
100
AcDbArc
 50
44.0751062253
 51
90.0
  0
ARC
  5
1D0
330
1F
100
AcDbEntity
  8
0
  6
Continuous
 62
     7
370
    25
100
AcDbCircle
 10
72.9410854196
 20
176.9515
 30
0.0
 40
0.0750000000000171
100
AcDbArc
 50
90.0
 51
135.9248937747
  0
LINE
  5
1D1
330
1F
100
AcDbEntity
  8
0
  6
Continuous
 62
     7
370
    25
100
AcDbLine
 10
115.8906928897
 20
177.0265011883
 30
0.0
 11
115.8906928897
 21
177.1874992943
 31
0.0
  0
LINE
  5
1D2
330
1F
100
AcDbEntity
  8
0
  6
Continuous
 62
     7
370
    25
100
AcDbLine
 10
115.0593079329
 20
177.1874992943
 30
0.0
 11
115.0593079329
 21
177.0265011883
 31
0.0
  0
LINE
  5
1D3
330
1F
100
AcDbEntity
  8
0
  6
Continuous
 62
     7
370
    25
100
AcDbLine
 10
73.9406920671
 20
177.0265011883
 30
0.0
 11
73.9406920671
 21
177.1874992943
 31
0.0
  0
LINE
  5
1D4
330
1F
100
AcDbEntity
  8
0
  6
Continuous
 62
     7
370
    25
100
AcDbLine
 10
73.1093071103
 20
177.1874992943
 30
0.0
 11
73.1093071103
 21
177.0265011883
 31
0.0
  0
LINE
  5
1D5
330
1F
100
AcDbEntity
  8
0
  6
Continuous
 62
     7
370
    25
100
AcDbLine
 10
115.7209999561
 20
177.1874992943
 30
0.0
 11
115.7209999561
 21
177.2549985743
 31
0.0
  0
LINE
  5
1D6
330
1F
100
AcDbEntity
  8
0
  6
Continuous
 62
     7
370
    25
100
AcDbLine
 10
115.2289993763
 20
177.2549985743
 30
0.0
 11
115.2289993763
 21
177.1874992943
 31
0.0
  0
LINE
  5
1D7
330
1F
100
AcDbEntity
  8
0
  6
Continuous
 62
     7
370
    25
100
AcDbLine
 10
73.7710006237
 20
177.1874992943
 30
0.0
 11
73.7710006237
 21
177.2549985743
 31
0.0
  0
LINE
  5
1D8
330
1F
100
AcDbEntity
  8
0
  6
Continuous
 62
     7
370
    25
100
AcDbLine
 10
73.2790000439
 20
177.2549985743
 30
0.0
 11
73.2790000439
 21
177.1874992943
 31
0.0
  0
LINE
  5
1D9
330
1F
100
AcDbEntity
  8
0
  6
Continuous
 62
     7
370
    25
100
AcDbLine
 10
116.4750002027
 20
282.4900000191
 30
0.0
 11
116.4750002027
 21
272.7400003767
 31
0.0
  0
LINE
  5
1DA
330
1F
100
AcDbEntity
  8
0
  6
Continuous
 62
     7
370
    25
100
AcDbLine
 10
72.5249997973
 20
282.4900000191
 30
0.0
 11
116.4750002027
 21
282.4900000191
 31
0.0
  0
LINE
  5
1DB
330
1F
100
AcDbEntity
  8
0
  6
Continuous
 62
     7
370
    25
100
AcDbLine
 10
116.0250000358
 20
282.0400028324
 30
0.0
 11
72.9749999642
 21
282.0400028324
 31
0.0
  0
LINE
  5
1DC
330
1F
100
AcDbEntity
  8
0
  6
Continuous
 62
     7
370
    25
100
AcDbLine
 10
72.9749999642
 20
282.0400028324
 30
0.0
 11
72.9749999642
 21
273.1900005436
 31
0.0
  0
LINE
  5
1DD
330
1F
100
AcDbEntity
  8
0
  6
Continuous
 62
     7
370
    25
100
AcDbLine
 10
72.9749999642
 20
273.1900005436
 30
0.0
 11
116.0250000358
 21
273.1900005436
 31
0.0
  0
LINE
  5
1DE
330
1F
100
AcDbEntity
  8
0
  6
Continuous
 62
     7
370
    25
100
AcDbLine
 10
116.0250000358
 20
273.1900005436
 30
0.0
 11
116.0250000358
 21
282.0400028324
 31
0.0
  0
LINE
  5
1DF
330
1F
100
AcDbEntity
  8
0
  6
Continuous
 62
     7
370
    25
100
AcDbLine
 10
116.4750002027
 20
272.7400003767
 30
0.0
 11
72.5249997973
 21
272.7400003767
 31
0.0
  0
LINE
  5
1E0
330
1F
100
AcDbEntity
  8
0
  6
Continuous
 62
     7
370
    25
100
AcDbLine
 10
72.5249997973
 20
272.7400003767
 30
0.0
 11
72.5249997973
 21
282.4900000191
 31
0.0
  0
LINE
  5
1E1
330
1F
100
AcDbEntity
  8
0
  6
Continuous
 62
     7
370
    25
100
AcDbLine
 10
72.9749999642
 20
276.7296462154
 30
0.0
 11
116.0250000358
 21
276.7296462154
 31
0.0
  0
LINE
  5
1E2
330
1F
100
AcDbEntity
  8
0
  6
Continuous
 62
     7
370
    25
100
AcDbLine
 10
72.9749999642
 20
281.9796471691
 30
0.0
 11
116.0250000358
 21
281.9796471691
 31
0.0
  0
LINE
  5
1E3
330
1F
100
AcDbEntity
  8
0
  6
Continuous
 62
     7
370
    25
100
AcDbLine
 10
72.9749999642
 20
278.4796445465
 30
0.0
 11
116.0250000358
 21
278.4796445465
 31
0.0
  0
LINE
  5
1E4
330
1F
100
AcDbEntity
  8
0
  6
Continuous
 62
     7
370
    25
100
AcDbLine
 10
72.9749999642
 20
280.2296428776
 30
0.0
 11
116.0250000358
 21
280.2296428776
 31
0.0
  0
LINE
  5
1E5
330
1F
100
AcDbEntity
  8
0
  6
Continuous
 62
     7
370
    25
100
AcDbLine
 10
72.9749999642
 20
274.9796449041
 30
0.0
 11
116.0250000358
 21
274.9796449041
 31
0.0
  0
LINE
  5
1E6
330
1F
100
AcDbEntity
  8
0
  6
Continuous
 62
     7
370
    25
100
AcDbLine
 10
72.9749999642
 20
277.7399985886
 30
0.0
 11
116.0250000358
 21
277.7399985886
 31
0.0
  0
LINE
  5
1E7
330
1F
100
AcDbEntity
  8
0
  6
Continuous
 62
     7
370
    25
100
AcDbLine
 10
72.9749999642
 20
274.2399989462
 30
0.0
 11
116.0250000358
 21
274.2399989462
 31
0.0
  0
LINE
  5
1E8
330
1F
100
AcDbEntity
  8
0
  6
Continuous
 62
     7
370
    25
100
AcDbLine
 10
72.9749999642
 20
277.3204474545
 30
0.0
 11
116.0250000358
 21
277.3204474545
 31
0.0
  0
LINE
  5
1E9
330
1F
100
AcDbEntity
  8
0
  6
Continuous
 62
     7
370
    25
100
AcDbLine
 10
72.9749999642
 20
275.9900002575
 30
0.0
 11
116.0250000358
 21
275.9900002575
 31
0.0
  0
LINE
  5
1EA
330
1F
100
AcDbEntity
  8
0
  6
Continuous
 62
     7
370
    25
100
AcDbLine
 10
72.9749999642
 20
279.4900028801
 30
0.0
 11
116.0250000358
 21
279.4900028801
 31
0.0
  0
LINE
  5
1EB
330
1F
100
AcDbEntity
  8
0
  6
Continuous
 62
     7
370
    25
100
AcDbLine
 10
72.9749999642
 20
281.2400012112
 30
0.0
 11
116.0250000358
 21
281.2400012112
 31
0.0
  0
LINE
  5
1EC
330
1F
100
AcDbEntity
  8
0
  6
Continuous
 62
     7
370
    25
100
AcDbLine
 10
72.9749999642
 20
275.5704491234
 30
0.0
 11
116.0250000358
 21
275.5704491234
 31
0.0
  0
LINE
  5
1ED
330
1F
100
AcDbEntity
  8
0
  6
Continuous
 62
     7
370
    25
100
AcDbLine
 10
72.9749999642
 20
279.070451746
 30
0.0
 11
116.0250000358
 21
279.070451746
 31
0.0
  0
LINE
  5
1EE
330
1F
100
AcDbEntity
  8
0
  6
Continuous
 62
     7
370
    25
100
AcDbLine
 10
72.9749999642
 20
280.8204500771
 30
0.0
 11
116.0250000358
 21
280.8204500771
 31
0.0
  0
LINE
  5
1EF
330
1F
100
AcDbEntity
  8
0
  6
Continuous
 62
     7
370
    25
100
AcDbLine
 10
72.9749999642
 20
273.8204507923
 30
0.0
 11
116.0250000358
 21
273.8204507923
 31
0.0
  0
LINE
  5
1F0
330
1F
100
AcDbEntity
  8
0
  6
Continuous
 62
     7
370
    25
100
AcDbLine
 10
75.0250003934
 20
204.6399994588
 30
0.0
 11
75.0250003934
 21
203.890000174
 31
0.0
  0
LINE
  5
1F1
330
1F
100
AcDbEntity
  8
0
  6
Continuous
 62
     7
370
    25
100
AcDbLine
 10
75.0250003934
 20
205.3900002337
 30
0.0
 11
75.0250003934
 21
204.6399994588
 31
0.0
  0
LINE
  5
1F2
330
1F
100
AcDbEntity
  8
0
  6
Continuous
 62
     7
370
    25
100
AcDbLine
 10
113.9749996066
 20
205.3900002337
 30
0.0
 11
113.9749996066
 21
203.890000174
 31
0.0
  0
LINE
  5
1F3
330
1F
100
AcDbEntity
  8
0
  6
Continuous
 62
     7
370
    25
100
AcDbLine
 10
72.5249997973
 20
181.3399999237
 30
0.0
 11
116.4750002027
 21
181.3399999237
 31
0.0
  0
LINE
  5
1F4
330
1F
100
AcDbEntity
  8
0
  6
Continuous
 62
     7
370
    25
100
AcDbLine
 10
72.5249997973
 20
207.1400000548
 30
0.0
 11
72.5249997973
 21
181.3399999237
 31
0.0
  0
LINE
  5
1F5
330
1F
100
AcDbEntity
  8
0
  6
Continuous
 62
     7
370
    25
100
AcDbLine
 10
116.4750002027
 20
207.1400000548
 30
0.0
 11
72.5249997973
 21
207.1400000548
 31
0.0
  0
LINE
  5
1F6
330
1F
100
AcDbEntity
  8
0
  6
Continuous
 62
     7
370
    25
100
AcDbLine
 10
116.4750002027
 20
181.3399999237
 30
0.0
 11
116.4750002027
 21
207.1400000548
 31
0.0
  0
LINE
  5
1F7
330
1F
100
AcDbEntity
  8
0
  6
Continuous
 62
     7
370
    25
100
AcDbLine
 10
76.6500003338
 20
212.5400005674
 30
0.0
 11
75.1500002742
 21
212.5400005674
 31
0.0
  0
LINE
  5
1F8
330
1F
100
AcDbEntity
  8
0
  6
Continuous
 62
     7
370
    25
100
AcDbLine
 10
75.8999995589
 20
262.3400001621
 30
0.0
 11
75.1500002742
 21
262.3400001621
 31
0.0
  0
LINE
  5
1F9
330
1F
100
AcDbEntity
  8
0
  6
Continuous
 62
     7
370
    25
100
AcDbLine
 10
76.6500003338
 20
262.3400001621
 30
0.0
 11
75.8999995589
 21
262.3400001621
 31
0.0
  0
LINE
  5
1FA
330
1F
100
AcDbEntity
  8
0
  6
Continuous
 62
     7
370
    25
100
AcDbLine
 10
72.5249997973
 20
207.5399993753
 30
0.0
 11
116.4750002027
 21
207.5399993753
 31
0.0
  0
LINE
  5
1FB
330
1F
100
AcDbEntity
  8
0
  6
Continuous
 62
     7
370
    25
100
AcDbLine
 10
72.5249997973
 20
272.3399995661
 30
0.0
 11
72.5249997973
 21
207.5399993753
 31
0.0
  0
LINE
  5
1FC
330
1F
100
AcDbEntity
  8
0
  6
Continuous
 62
     7
370
    25
100
AcDbLine
 10
116.4750002027
 20
272.3399995661
 30
0.0
 11
72.5249997973
 21
272.3399995661
 31
0.0
  0
LINE
  5
1FD
330
1F
100
AcDbEntity
  8
0
  6
Continuous
 62
     7
370
    25
100
AcDbLine
 10
116.4750002027
 20
207.5399993753
 30
0.0
 11
116.4750002027
 21
272.3399995661
 31
0.0
  0
LINE
  5
1FE
330
1F
100
AcDbEntity
  8
0
  6
Continuous
 62
     7
370
    25
100
AcDbLine
 10
72.3500005603
 20
282.4900000191
 30
0.0
 11
72.3500005603
 21
272.7400003767
 31
0.0
  0
LINE
  5
1FF
330
1F
100
AcDbEntity
  8
0
  6
Continuous
 62
     7
370
    25
100
AcDbLine
 10
72.3500005603
 20
282.4900000191
 30
0.0
 11
72.5249997973
 21
282.4900000191
 31
0.0
  0
LINE
  5
200
330
1F
100
AcDbEntity
  8
0
  6
Continuous
 62
     7
370
    25
100
AcDbLine
 10
116.4750002027
 20
282.4900000191
 30
0.0
 11
116.6499994397
 21
282.4900000191
 31
0.0
  0
LINE
  5
201
330
1F
100
AcDbEntity
  8
0
  6
Continuous
 62
     7
370
    25
100
AcDbLine
 10
116.6499994397
 20
282.4900000191
 30
0.0
 11
116.6499994397
 21
272.7400003767
 31
0.0
  0
LINE
  5
202
330
1F
100
AcDbEntity
  8
0
  6
Continuous
 62
     7
370
    25
100
AcDbLine
 10
72.3500005603
 20
272.7400003767
 30
0.0
 11
72.5249997973
 21
272.7400003767
 31
0.0
  0
LINE
  5
203
330
1F
100
AcDbEntity
  8
0
  6
Continuous
 62
     7
370
    25
100
AcDbLine
 10
116.4750002027
 20
272.7400003767
 30
0.0
 11
116.6499994397
 21
272.7400003767
 31
0.0
  0
LINE
  5
204
330
1F
100
AcDbEntity
  8
0
  6
Continuous
 62
     7
370
    25
100
AcDbLine
 10
72.3999999166
 20
182.2549997663
 30
0.0
 11
72.3999999166
 21
177.2549985743
 31
0.0
  0
LINE
  5
205
330
1F
100
AcDbEntity
  8
0
  6
Continuous
 62
     7
370
    25
100
AcDbLine
 10
116.6000000834
 20
177.2549985743
 30
0.0
 11
116.6000000834
 21
182.2549997663
 31
0.0
  0
LINE
  5
206
330
1F
100
AcDbEntity
  8
0
  6
Continuous
 62
     7
370
    25
100
AcDbLine
 10
92.7000000775
 20
181.3050000763
 30
0.0
 11
96.2999999225
 21
181.3050000763
 31
0.0
  0
LWPOLYLINE
  5
207
330
1F
100
AcDbEntity
  8
0
  6
Continuous
 62
     7
370
    25
100
AcDbPolyline
 90
        3
 70
   128
 43
0.0
 10
96.2999999225
 20
181.3050000763
 10
96.3618034199
 20
181.3147901392
 10
96.413026534
 20
181.3399999237
  0
LWPOLYLINE
  5
208
330
1F
100
AcDbEntity
  8
0
  6
Continuous
 62
     7
370
    25
100
AcDbPolyline
 90
        3
 70
   128
 43
0.0
 10
92.586973466
 20
181.3399999237
 10
92.6381965801
 20
181.3147901392
 10
92.7000000775
 20
181.3050000763
  0
LINE
  5
209
330
1F
100
AcDbEntity
  8
0
  6
Continuous
 62
     7
370
    25
100
AcDbLine
 10
97.700000152
 20
181.3050000763
 30
0.0
 11
101.3000003695
 21
181.3050000763
 31
0.0
  0
LWPOLYLINE
  5
20A
330
1F
100
AcDbEntity
  8
0
  6
Continuous
 62
     7
370
    25
100
AcDbPolyline
 90
        3
 70
   128
 43
0.0
 10
101.3000003695
 20
181.3050000763
 10
101.3618036807
 20
181.3147901392
 10
101.4130264223
 20
181.3399999237
  0
LWPOLYLINE
  5
20B
330
1F
100
AcDbEntity
  8
0
  6
Continuous
 62
     7
370
    25
100
AcDbPolyline
 90
        3
 70
   128
 43
0.0
 10
97.5869735405
 20
181.3399999237
 10
97.6381964684
 20
181.3147901392
 10
97.700000152
 20
181.3050000763
  0
LWPOLYLINE
  5
20C
330
1F
100
AcDbEntity
  8
0
  6
Continuous
 62
     7
370
    25
100
AcDbPolyline
 90
        3
 70
   128
 43
0.0
 10
102.5869734287
 20
181.3399999237
 10
102.6381969154
 20
181.3147901392
 10
102.7000002265
 20
181.3050000763
  0
LINE
  5
20D
330
1F
100
AcDbEntity
  8
0
  6
Continuous
 62
     7
370
    25
100
AcDbLine
 10
107.6999999285
 20
181.3050000763
 30
0.0
 11
111.2999997735
 21
181.3050000763
 31
0.0
  0
LWPOLYLINE
  5
20E
330
1F
100
AcDbEntity
  8
0
  6
Continuous
 62
     7
370
    25
100
AcDbPolyline
 90
        3
 70
   128
 43
0.0
 10
111.2999997735
 20
181.3050000763
 10
111.3618038297
 20
181.3147901392
 10
111.4130265713
 20
181.3399999237
  0
LINE
  5
20F
330
1F
100
AcDbEntity
  8
0
  6
Continuous
 62
     7
370
    25
100
AcDbLine
 10
87.6999996305
 20
181.3050000763
 30
0.0
 11
91.299999848
 21
181.3050000763
 31
0.0
  0
LWPOLYLINE
  5
210
330
1F
100
AcDbEntity
  8
0
  6
Continuous
 62
     7
370
    25
100
AcDbPolyline
 90
        3
 70
   128
 43
0.0
 10
91.299999848
 20
181.3050000763
 10
91.3618035316
 20
181.3147901392
 10
91.4130264595
 20
181.3399999237
  0
LWPOLYLINE
  5
211
330
1F
100
AcDbEntity
  8
0
  6
Continuous
 62
     7
370
    25
100
AcDbPolyline
 90
        3
 70
   128
 43
0.0
 10
87.5869735777
 20
181.3399999237
 10
87.6381963193
 20
181.3147901392
 10
87.6999996305
 20
181.3050000763
  0
LINE
  5
212
330
1F
100
AcDbEntity
  8
0
  6
Continuous
 62
     7
370
    25
100
AcDbLine
 10
82.6999999285
 20
181.3050000763
 30
0.0
 11
86.2999997735
 21
181.3050000763
 31
0.0
  0
LWPOLYLINE
  5
213
330
1F
100
AcDbEntity
  8
0
  6
Continuous
 62
     7
370
    25
100
AcDbPolyline
 90
        3
 70
   128
 43
0.0
 10
86.2999997735
 20
181.3050000763
 10
86.3618030846
 20
181.3147901392
 10
86.4130265713
 20
181.3399999237
  0
LWPOLYLINE
  5
214
330
1F
100
AcDbEntity
  8
0
  6
Continuous
 62
     7
370
    25
100
AcDbPolyline
 90
        3
 70
   128
 43
0.0
 10
82.5869731307
 20
181.3399999237
 10
82.6381966174
 20
181.3147901392
 10
82.6999999285
 20
181.3050000763
  0
LWPOLYLINE
  5
215
330
1F
100
AcDbEntity
  8
0
  6
Continuous
 62
     7
370
    25
100
AcDbPolyline
 90
        3
 70
   128
 43
0.0
 10
81.3000000715
 20
181.3050000763
 10
81.3618041277
 20
181.3147901392
 10
81.4130268693
 20
181.3399999237
  0
LWPOLYLINE
  5
216
330
1F
100
AcDbEntity
  8
0
  6
Continuous
 62
     7
370
    25
100
AcDbPolyline
 90
        3
 70
   128
 43
0.0
 10
77.5869734287
 20
181.3399999237
 10
77.6381961703
 20
181.3147901392
 10
77.7000002265
 20
181.3050000763
  0
LINE
  5
217
330
1F
100
AcDbEntity
  8
0
  6
Continuous
 62
     7
370
    25
100
AcDbLine
 10
72.3999999166
 20
177.2549985743
 30
0.0
 11
116.6000000834
 21
177.2549985743
 31
0.0
  0
LWPOLYLINE
  5
218
330
1F
100
AcDbEntity
  8
0
  6
Continuous
 62
     7
370
    25
100
AcDbPolyline
 90
        3
 70
   128
 43
0.0
 10
107.5869731307
 20
181.3399999237
 10
107.6381958723
 20
181.3147901392
 10
107.6999999285
 20
181.3050000763
  0
LINE
  5
219
330
1F
100
AcDbEntity
  8
0
  6
Continuous
 62
     7
370
    25
100
AcDbLine
 10
77.7000002265
 20
181.3050000763
 30
0.0
 11
81.3000000715
 21
181.3050000763
 31
0.0
  0
LWPOLYLINE
  5
21A
330
1F
100
AcDbEntity
  8
0
  6
Continuous
 62
     7
370
    25
100
AcDbPolyline
 90
        3
 70
   128
 43
0.0
 10
106.3000000715
 20
181.3050000763
 10
106.3618033826
 20
181.3147901392
 10
106.4130268693
 20
181.3399999237
  0
LINE
  5
21B
330
1F
100
AcDbEntity
  8
0
  6
Continuous
 62
     7
370
    25
100
AcDbLine
 10
102.7000002265
 20
181.3050000763
 30
0.0
 11
106.3000000715
 21
181.3050000763
 31
0.0
  0
LINE
  5
21C
330
1F
100
AcDbEntity
  8
0
  6
Continuous
 62
     7
370
    25
100
AcDbLine
 10
72.141017735
 20
182.5049995279
 30
0.0
 11
72.141017735
 21
272.4900006151
 31
0.0
  0
LINE
  5
21D
330
1F
100
AcDbEntity
  8
0
  6
Continuous
 62
     7
370
    25
100
AcDbLine
 10
72.1299998164
 20
182.5049995279
 30
0.0
 11
72.1299998164
 21
272.4900006151
 31
0.0
  0
LINE
  5
21E
330
1F
100
AcDbEntity
  8
0
  6
Continuous
 62
     7
370
    25
100
AcDbLine
 10
72.1299998164
 20
182.5049995279
 30
0.0
 11
72.141017735
 21
182.5049995279
 31
0.0
  0
LINE
  5
21F
330
1F
100
AcDbEntity
  8
0
  6
Continuous
 62
     7
370
    25
100
AcDbLine
 10
72.1299998164
 20
272.4900006151
 30
0.0
 11
72.141017735
 21
272.4900006151
 31
0.0
  0
LINE
  5
220
330
1F
100
AcDbEntity
  8
0
  6
Continuous
 62
     7
370
    25
100
AcDbLine
 10
72.1840686798
 20
182.5049995279
 30
0.0
 11
72.1840686798
 21
272.4900006151
 31
0.0
  0
LINE
  5
221
330
1F
100
AcDbEntity
  8
0
  6
Continuous
 62
     7
370
    25
100
AcDbLine
 10
72.141017735
 20
182.5049995279
 30
0.0
 11
72.1840686798
 21
182.5049995279
 31
0.0
  0
LINE
  5
222
330
1F
100
AcDbEntity
  8
0
  6
Continuous
 62
     7
370
    25
100
AcDbLine
 10
72.141017735
 20
272.4900006151
 30
0.0
 11
72.1840686798
 21
272.4900006151
 31
0.0
  0
LINE
  5
223
330
1F
100
AcDbEntity
  8
0
  6
Continuous
 62
     7
370
    25
100
AcDbLine
 10
72.1199996471
 20
182.5049995279
 30
0.0
 11
72.1199996471
 21
272.4900006151
 31
0.0
  0
LINE
  5
224
330
1F
100
AcDbEntity
  8
0
  6
Continuous
 62
     7
370
    25
100
AcDbLine
 10
72.1199996471
 20
182.5049995279
 30
0.0
 11
72.1299998164
 21
182.5049995279
 31
0.0
  0
LINE
  5
225
330
1F
100
AcDbEntity
  8
0
  6
Continuous
 62
     7
370
    25
100
AcDbLine
 10
72.1199996471
 20
272.4900006151
 30
0.0
 11
72.1299998164
 21
272.4900006151
 31
0.0
  0
LINE
  5
226
330
1F
100
AcDbEntity
  8
0
  6
Continuous
 62
     7
370
    25
100
AcDbLine
 10
72.0250002742
 20
182.5049995279
 30
0.0
 11
72.0250002742
 21
272.4900006151
 31
0.0
  0
LINE
  5
227
330
1F
100
AcDbEntity
  8
0
  6
Continuous
 62
     7
370
    25
100
AcDbLine
 10
72.0250002742
 20
182.5049995279
 30
0.0
 11
72.1199996471
 21
182.5049995279
 31
0.0
  0
LINE
  5
228
330
1F
100
AcDbEntity
  8
0
  6
Continuous
 62
     7
370
    25
100
AcDbLine
 10
72.0250002742
 20
272.4900006151
 30
0.0
 11
72.1199996471
 21
272.4900006151
 31
0.0
  0
LINE
  5
229
330
1F
100
AcDbEntity
  8
0
  6
Continuous
 62
     7
370
    25
100
AcDbLine
 10
72.1840686798
 20
182.5049995279
 30
0.0
 11
72.1850000024
 21
182.5049995279
 31
0.0
  0
LINE
  5
22A
330
1F
100
AcDbEntity
  8
0
  6
Continuous
 62
     7
370
    25
100
AcDbLine
 10
72.1840686798
 20
272.4900006151
 30
0.0
 11
72.1850000024
 21
272.4900006151
 31
0.0
  0
LINE
  5
22B
330
1F
100
AcDbEntity
  8
0
  6
Continuous
 62
     7
370
    25
100
AcDbLine
 10
73.0686269403
 20
207.1400000548
 30
0.0
 11
73.0686269403
 21
207.5399993753
 31
0.0
  0
LINE
  5
22C
330
1F
100
AcDbEntity
  8
0
  6
Continuous
 62
     7
370
    25
100
AcDbLine
 10
73.0686269403
 20
272.3399995661
 30
0.0
 11
73.0686269403
 21
272.4900006151
 31
0.0
  0
LINE
  5
22D
330
1F
100
AcDbEntity
  8
0
  6
Continuous
 62
     7
370
    25
100
AcDbLine
 10
72.1850000024
 20
182.5049995279
 30
0.0
 11
72.5249997973
 21
182.5049995279
 31
0.0
  0
LINE
  5
22E
330
1F
100
AcDbEntity
  8
0
  6
Continuous
 62
     7
370
    25
100
AcDbLine
 10
72.1850000024
 20
272.4900006151
 30
0.0
 11
73.0686269403
 21
272.4900006151
 31
0.0
  0
LINE
  5
22F
330
1F
100
AcDbEntity
  8
0
  6
Continuous
 62
     7
370
    25
100
AcDbLine
 10
73.082252562
 20
207.1400000548
 30
0.0
 11
73.082252562
 21
207.5399993753
 31
0.0
  0
LINE
  5
230
330
1F
100
AcDbEntity
  8
0
  6
Continuous
 62
     7
370
    25
100
AcDbLine
 10
73.082252562
 20
272.3399995661
 30
0.0
 11
73.082252562
 21
272.4900006151
 31
0.0
  0
LINE
  5
231
330
1F
100
AcDbEntity
  8
0
  6
Continuous
 62
     7
370
    25
100
AcDbLine
 10
73.0686269403
 20
272.4900006151
 30
0.0
 11
73.082252562
 21
272.4900006151
 31
0.0
  0
LINE
  5
232
330
1F
100
AcDbEntity
  8
0
  6
Continuous
 62
     7
370
    25
100
AcDbLine
 10
73.082252562
 20
272.4900006151
 30
0.0
 11
73.0825222731
 21
272.4900006151
 31
0.0
  0
LINE
  5
233
330
1F
100
AcDbEntity
  8
0
  6
Continuous
 62
     7
370
    25
100
AcDbLine
 10
116.858982265
 20
272.4900006151
 30
0.0
 11
116.8700001836
 21
272.4900006151
 31
0.0
  0
LINE
  5
234
330
1F
100
AcDbEntity
  8
0
  6
Continuous
 62
     7
370
    25
100
AcDbLine
 10
116.8700001836
 20
182.5049995279
 30
0.0
 11
116.8700001836
 21
272.4900006151
 31
0.0
  0
LINE
  5
235
330
1F
100
AcDbEntity
  8
0
  6
Continuous
 62
     7
370
    25
100
AcDbLine
 10
116.858982265
 20
182.5049995279
 30
0.0
 11
116.8700001836
 21
182.5049995279
 31
0.0
  0
LINE
  5
236
330
1F
100
AcDbEntity
  8
0
  6
Continuous
 62
     7
370
    25
100
AcDbLine
 10
116.858982265
 20
182.5049995279
 30
0.0
 11
116.858982265
 21
272.4900006151
 31
0.0
  0
LINE
  5
237
330
1F
100
AcDbEntity
  8
0
  6
Continuous
 62
     7
370
    25
100
AcDbLine
 10
116.8159313202
 20
182.5049995279
 30
0.0
 11
116.8159313202
 21
272.4900006151
 31
0.0
  0
LINE
  5
238
330
1F
100
AcDbEntity
  8
0
  6
Continuous
 62
     7
370
    25
100
AcDbLine
 10
116.8159313202
 20
272.4900006151
 30
0.0
 11
116.858982265
 21
272.4900006151
 31
0.0
  0
LINE
  5
239
330
1F
100
AcDbEntity
  8
0
  6
Continuous
 62
     7
370
    25
100
AcDbLine
 10
116.8159313202
 20
182.5049995279
 30
0.0
 11
116.858982265
 21
182.5049995279
 31
0.0
  0
LINE
  5
23A
330
1F
100
AcDbEntity
  8
0
  6
Continuous
 62
     7
370
    25
100
AcDbLine
 10
116.8800003529
 20
182.5049995279
 30
0.0
 11
116.8800003529
 21
272.4900006151
 31
0.0
  0
LINE
  5
23B
330
1F
100
AcDbEntity
  8
0
  6
Continuous
 62
     7
370
    25
100
AcDbLine
 10
116.8700001836
 20
272.4900006151
 30
0.0
 11
116.8800003529
 21
272.4900006151
 31
0.0
  0
LINE
  5
23C
330
1F
100
AcDbEntity
  8
0
  6
Continuous
 62
     7
370
    25
100
AcDbLine
 10
116.8700001836
 20
182.5049995279
 30
0.0
 11
116.8800003529
 21
182.5049995279
 31
0.0
  0
LINE
  5
23D
330
1F
100
AcDbEntity
  8
0
  6
Continuous
 62
     7
370
    25
100
AcDbLine
 10
116.9749997258
 20
182.5049995279
 30
0.0
 11
116.9749997258
 21
272.4900006151
 31
0.0
  0
LINE
  5
23E
330
1F
100
AcDbEntity
  8
0
  6
Continuous
 62
     7
370
    25
100
AcDbLine
 10
116.8800003529
 20
272.4900006151
 30
0.0
 11
116.9749997258
 21
272.4900006151
 31
0.0
  0
LINE
  5
23F
330
1F
100
AcDbEntity
  8
0
  6
Continuous
 62
     7
370
    25
100
AcDbLine
 10
116.8800003529
 20
182.5049995279
 30
0.0
 11
116.9749997258
 21
182.5049995279
 31
0.0
  0
LINE
  5
240
330
1F
100
AcDbEntity
  8
0
  6
Continuous
 62
     7
370
    25
100
AcDbLine
 10
116.8149999976
 20
272.4900006151
 30
0.0
 11
116.8159313202
 21
272.4900006151
 31
0.0
  0
LINE
  5
241
330
1F
100
AcDbEntity
  8
0
  6
Continuous
 62
     7
370
    25
100
AcDbLine
 10
116.8149999976
 20
182.5049995279
 30
0.0
 11
116.8159313202
 21
182.5049995279
 31
0.0
  0
LINE
  5
242
330
1F
100
AcDbEntity
  8
0
  6
Continuous
 62
     7
370
    25
100
AcDbLine
 10
115.9313730597
 20
207.1400000548
 30
0.0
 11
115.9313730597
 21
207.5399993753
 31
0.0
  0
LINE
  5
243
330
1F
100
AcDbEntity
  8
0
  6
Continuous
 62
     7
370
    25
100
AcDbLine
 10
115.9313730597
 20
272.3399995661
 30
0.0
 11
115.9313730597
 21
272.4900006151
 31
0.0
  0
LINE
  5
244
330
1F
100
AcDbEntity
  8
0
  6
Continuous
 62
     7
370
    25
100
AcDbLine
 10
115.917747438
 20
207.1400000548
 30
0.0
 11
115.917747438
 21
207.5399993753
 31
0.0
  0
LINE
  5
245
330
1F
100
AcDbEntity
  8
0
  6
Continuous
 62
     7
370
    25
100
AcDbLine
 10
115.917747438
 20
272.3399995661
 30
0.0
 11
115.917747438
 21
272.4900006151
 31
0.0
  0
LINE
  5
246
330
1F
100
AcDbEntity
  8
0
  6
Continuous
 62
     7
370
    25
100
AcDbLine
 10
115.917747438
 20
272.4900006151
 30
0.0
 11
115.9313730597
 21
272.4900006151
 31
0.0
  0
LINE
  5
247
330
1F
100
AcDbEntity
  8
0
  6
Continuous
 62
     7
370
    25
100
AcDbLine
 10
115.9313730597
 20
272.4900006151
 30
0.0
 11
116.8149999976
 21
272.4900006151
 31
0.0
  0
LINE
  5
248
330
1F
100
AcDbEntity
  8
0
  6
Continuous
 62
     7
370
    25
100
AcDbLine
 10
116.4750002027
 20
182.5049995279
 30
0.0
 11
116.8149999976
 21
182.5049995279
 31
0.0
  0
LINE
  5
249
330
1F
100
AcDbEntity
  8
0
  6
Continuous
 62
     7
370
    25
100
AcDbLine
 10
115.917747438
 20
272.4900006151
 30
0.0
 11
115.9174777269
 21
272.4900006151
 31
0.0
  0
LINE
  5
24A
330
1F
100
AcDbEntity
  8
0
  6
Continuous
 62
     7
370
    25
100
AcDbLine
 10
72.3500005603
 20
182.2549997663
 30
0.0
 11
72.5249997973
 21
182.2549997663
 31
0.0
  0
LINE
  5
24B
330
1F
100
AcDbEntity
  8
0
  6
Continuous
 62
     7
370
    25
100
AcDbLine
 10
116.4750002027
 20
182.2549997663
 30
0.0
 11
116.6499994397
 21
182.2549997663
 31
0.0
  0
LINE
  5
24C
330
1F
100
AcDbEntity
  8
0
  6
Continuous
 62
     7
370
    25
100
AcDbLine
 10
72.3500005603
 20
272.7400003767
 30
0.0
 11
72.3500005603
 21
272.4900006151
 31
0.0
  0
LINE
  5
24D
330
1F
100
AcDbEntity
  8
0
  6
Continuous
 62
     7
370
    25
100
AcDbLine
 10
72.3500005603
 20
182.5049995279
 30
0.0
 11
72.3500005603
 21
182.2549997663
 31
0.0
  0
LINE
  5
24E
330
1F
100
AcDbEntity
  8
0
  6
Continuous
 62
     7
370
    25
100
AcDbLine
 10
116.6499994397
 20
272.7400003767
 30
0.0
 11
116.6499994397
 21
272.4900006151
 31
0.0
  0
LINE
  5
24F
330
1F
100
AcDbEntity
  8
0
  6
Continuous
 62
     7
370
    25
100
AcDbLine
 10
116.6499994397
 20
182.5049995279
 30
0.0
 11
116.6499994397
 21
182.2549997663
 31
0.0
  0
LINE
  5
250
330
1F
100
AcDbEntity
  8
0
  6
Continuous
 62
     7
370
    25
100
AcDbLine
 10
72.6584993005
 20
176.4899997807
 30
0.0
 11
74.391499877
 21
176.4899997807
 31
0.0
  0
LINE
  5
251
330
1F
100
AcDbEntity
  8
0
  6
Continuous
 62
     7
370
    25
100
AcDbLine
 10
116.3415006995
 20
176.4899997807
 30
0.0
 11
114.608500123
 21
176.4899997807
 31
0.0
  0
LINE
  5
252
330
1F
100
AcDbEntity
  8
0
  6
Continuous
 62
     7
370
    25
100
AcDbLine
 10
72.3600007296
 20
182.2450010872
 30
0.0
 11
72.3600007296
 21
182.2549997663
 31
0.0
  0
LINE
  5
253
330
1F
100
AcDbEntity
  8
0
  6
Continuous
 62
     7
370
    25
100
AcDbLine
 10
116.6499994397
 20
178.1049995518
 30
0.0
 11
116.6499994397
 21
182.2450010872
 31
0.0
  0
LINE
  5
254
330
1F
100
AcDbEntity
  8
0
  6
Continuous
 62
     7
370
    25
100
AcDbLine
 10
72.3500005603
 20
178.1049995518
 30
0.0
 11
72.3999999166
 21
178.1049995518
 31
0.0
  0
LINE
  5
255
330
1F
100
AcDbEntity
  8
0
  6
Continuous
 62
     7
370
    25
100
AcDbLine
 10
72.3500005603
 20
178.1049995518
 30
0.0
 11
72.3500005603
 21
182.2450010872
 31
0.0
  0
LINE
  5
256
330
1F
100
AcDbEntity
  8
0
  6
Continuous
 62
     7
370
    25
100
AcDbLine
 10
72.3500005603
 20
182.2450010872
 30
0.0
 11
72.3600007296
 21
182.2450010872
 31
0.0
  0
LINE
  5
257
330
1F
100
AcDbEntity
  8
0
  6
Continuous
 62
     7
370
    25
100
AcDbLine
 10
116.6000000834
 20
178.1049995518
 30
0.0
 11
116.6499994397
 21
178.1049995518
 31
0.0
  0
LINE
  5
258
330
1F
100
AcDbEntity
  8
0
  6
Continuous
 62
     7
370
    25
100
AcDbLine
 10
116.6399992704
 20
182.2450010872
 30
0.0
 11
116.6499994397
 21
182.2450010872
 31
0.0
  0
LINE
  5
259
330
1F
100
AcDbEntity
  8
0
  6
Continuous
 62
     7
370
    25
100
AcDbLine
 10
116.6399992704
 20
182.2549997663
 30
0.0
 11
116.6399992704
 21
182.2450010872
 31
0.0
  0
LINE
  5
25A
330
1F
100
AcDbEntity
  8
0
  6
Continuous
 62
     7
370
    25
100
AcDbLine
 10
116.0589150786
 20
177.0265011883
 30
0.0
 11
114.8910857439
 21
177.0265011883
 31
0.0
  0
LINE
  5
25B
330
1F
100
AcDbEntity
  8
0
  6
Continuous
 62
     7
370
    25
100
AcDbLine
 10
72.9410849214
 20
177.0265011883
 30
0.0
 11
74.1089142561
 21
177.0265011883
 31
0.0
  0
LINE
  5
25C
330
1F
100
AcDbEntity
  8
0
  6
Continuous
 62
     7
370
    25
100
AcDbLine
 10
115.8906928897
 20
177.1874992943
 30
0.0
 11
115.0593079329
 21
177.1874992943
 31
0.0
  0
LINE
  5
25D
330
1F
100
AcDbEntity
  8
0
  6
Continuous
 62
     7
370
    25
100
AcDbLine
 10
73.1093071103
 20
177.1874992943
 30
0.0
 11
73.9406920671
 21
177.1874992943
 31
0.0
  0
LINE
  5
25E
330
1F
100
AcDbEntity
  8
0
  6
Continuous
 62
     7
370
    25
100
AcDbLine
 10
116.6000000834
 20
177.4049996233
 30
0.0
 11
116.6499994397
 21
177.4049996233
 31
0.0
  0
LINE
  5
25F
330
1F
100
AcDbEntity
  8
0
  6
Continuous
 62
     7
370
    25
100
AcDbLine
 10
116.6499994397
 20
177.4049996233
 30
0.0
 11
116.6499994397
 21
178.1049995518
 31
0.0
  0
LINE
  5
260
330
1F
100
AcDbEntity
  8
0
  6
Continuous
 62
     7
370
    25
100
AcDbLine
 10
72.3500005603
 20
177.4049996233
 30
0.0
 11
72.3999999166
 21
177.4049996233
 31
0.0
  0
LINE
  5
261
330
1F
100
AcDbEntity
  8
0
  6
Continuous
 62
     7
370
    25
100
AcDbLine
 10
72.3500005603
 20
177.4049996233
 30
0.0
 11
72.3500005603
 21
178.1049995518
 31
0.0
  0
LINE
  5
262
330
1F
100
AcDbEntity
  8
0
  6
Continuous
 62
     7
370
    25
100
AcDbLine
 10
74.0375004411
 20
177.2549985743
 30
0.0
 11
74.0375004411
 21
177.0265011883
 31
0.0
  0
LINE
  5
263
330
1F
100
AcDbEntity
  8
0
  6
Continuous
 62
     7
370
    25
100
AcDbLine
 10
73.0125002265
 20
177.2549985743
 30
0.0
 11
73.0125002265
 21
177.0265011883
 31
0.0
  0
LINE
  5
264
330
1F
100
AcDbEntity
  8
0
  6
Continuous
 62
     7
370
    25
100
AcDbLine
 10
114.9624995589
 20
177.2549985743
 30
0.0
 11
114.9624995589
 21
177.0265011883
 31
0.0
  0
LINE
  5
265
330
1F
100
AcDbEntity
  8
0
  6
Continuous
 62
     7
370
    25
100
AcDbLine
 10
115.9874997735
 20
177.2549985743
 30
0.0
 11
115.9874997735
 21
177.0265011883
 31
0.0
  0
LINE
  5
266
330
1F
100
AcDbEntity
  8
0
  6
Continuous
 62
     8
370
    25
100
AcDbLine
 10
116.4164997339
 20
176.6596405602
 30
0.0
 11
114.5334995985
 21
176.6596405602
 31
0.0
  0
LINE
  5
267
330
1F
100
AcDbEntity
  8
0
  6
Continuous
 62
     8
370
    25
100
AcDbLine
 10
116.3953818083
 20
176.7118095255
 30
0.0
 11
114.5546175241
 21
176.7118095255
 31
0.0
  0
LINE
  5
268
330
1F
100
AcDbEntity
  8
0
  6
Continuous
 62
     8
370
    25
100
AcDbLine
 10
72.5835002661
 20
176.5650003052
 30
0.0
 11
74.4665004015
 21
176.5650003052
 31
0.0
  0
LINE
  5
269
330
1F
100
AcDbEntity
  8
0
  6
Continuous
 62
     8
370
    25
100
AcDbLine
 10
72.5835002661
 20
176.6596405602
 30
0.0
 11
74.4665004015
 21
176.6596405602
 31
0.0
  0
LINE
  5
26A
330
1F
100
AcDbEntity
  8
0
  6
Continuous
 62
     8
370
    25
100
AcDbLine
 10
72.6046181917
 20
176.7118095255
 30
0.0
 11
74.4453824759
 21
176.7118095255
 31
0.0
  0
LINE
  5
26B
330
1F
100
AcDbEntity
  8
0
  6
Continuous
 62
     8
370
    25
100
AcDbLine
 10
116.4164997339
 20
176.5650003052
 30
0.0
 11
114.5334995985
 21
176.5650003052
 31
0.0
  0
LINE
  5
26C
330
1F
100
AcDbEntity
  8
0
  6
Continuous
 62
     8
370
    25
100
AcDbLine
 10
72.8872038126
 20
177.0036696291
 30
0.0
 11
74.162796855
 21
177.0036696291
 31
0.0
  0
LINE
  5
26D
330
1F
100
AcDbEntity
  8
0
  6
Continuous
 62
     8
370
    25
100
AcDbLine
 10
116.1127961874
 20
177.0036696291
 30
0.0
 11
114.837203145
 21
177.0036696291
 31
0.0
  0
LINE
  5
26E
330
1F
100
AcDbEntity
  8
0
  6
Continuous
 62
     7
370
    25
100
AcDbLine
 10
75.0250003934
 20
93.4900003815
 30
0.0
 11
113.9749996066
 21
93.4900003815
 31
0.0
  0
LINE
  5
26F
330
1F
100
AcDbEntity
  8
0
  6
Continuous
 62
     7
370
    25
100
AcDbLine
 10
76.9000000954
 20
94.9900004411
 30
0.0
 11
76.525000453
 21
94.9900004411
 31
0.0
  0
LINE
  5
270
330
1F
100
AcDbEntity
  8
0
  6
Continuous
 62
     7
370
    25
100
AcDbLine
 10
75.275000155
 20
94.9900004411
 30
0.0
 11
75.0250003934
 21
94.9900004411
 31
0.0
  0
LINE
  5
271
330
1F
100
AcDbEntity
  8
0
  6
Continuous
 62
     7
370
    25
100
AcDbLine
 10
110.8499996066
 20
94.9900004411
 30
0.0
 11
78.148557961
 21
94.9900004411
 31
0.0
  0
LINE
  5
272
330
1F
100
AcDbEntity
  8
0
  6
Continuous
 62
     7
370
    25
100
AcDbLine
 10
113.9749996066
 20
94.9900004411
 30
0.0
 11
112.0985574722
 21
94.9900004411
 31
0.0
  0
LINE
  5
273
330
1F
100
AcDbEntity
  8
0
  6
Continuous
 62
     7
370
    25
100
AcDbLine
 10
110.8499996066
 20
96.4399996543
 30
0.0
 11
110.8499996066
 21
94.9900004411
 31
0.0
  0
LINE
  5
274
330
1F
100
AcDbEntity
  8
0
  6
Continuous
 62
     7
370
    25
100
AcDbLine
 10
112.0999999046
 20
94.9887994075
 30
0.0
 11
112.0999999046
 21
96.4399996543
 31
0.0
  0
LINE
  5
275
330
1F
100
AcDbEntity
  8
0
  6
Continuous
 62
     7
370
    25
100
AcDbLine
 10
76.9000000954
 20
96.4399996543
 30
0.0
 11
76.9000000954
 21
94.9900004411
 31
0.0
  0
LINE
  5
276
330
1F
100
AcDbEntity
  8
0
  6
Continuous
 62
     7
370
    25
100
AcDbLine
 10
78.1500003934
 20
94.9887994075
 30
0.0
 11
78.1500003934
 21
96.4399996543
 31
0.0
  0
LINE
  5
277
330
1F
100
AcDbEntity
  8
0
  6
Continuous
 62
     7
370
    25
100
AcDbLine
 10
75.275000155
 20
96.4399996543
 30
0.0
 11
75.275000155
 21
94.6545782828
 31
0.0
  0
LINE
  5
278
330
1F
100
AcDbEntity
  8
0
  6
Continuous
 62
     7
370
    25
100
AcDbLine
 10
76.525000453
 20
94.6582320476
 30
0.0
 11
76.525000453
 21
96.4399996543
 31
0.0
  0
LINE
  5
279
330
1F
100
AcDbEntity
  8
0
  6
Continuous
 62
     7
370
    25
100
AcDbLine
 10
72.5249997973
 20
96.4399996543
 30
0.0
 11
116.4750002027
 21
96.4399996543
 31
0.0
  0
LINE
  5
27A
330
1F
100
AcDbEntity
  8
0
  6
Continuous
 62
     7
370
    25
100
AcDbLine
 10
72.5249997973
 20
96.4399996543
 30
0.0
 11
72.5249997973
 21
99.8899999404
 31
0.0
  0
LINE
  5
27B
330
1F
100
AcDbEntity
  8
0
  6
Continuous
 62
     7
370
    25
100
AcDbLine
 10
116.4750002027
 20
99.8899999404
 30
0.0
 11
72.5249997973
 21
99.8899999404
 31
0.0
  0
LINE
  5
27C
330
1F
100
AcDbEntity
  8
0
  6
Continuous
 62
     7
370
    25
100
AcDbLine
 10
116.4750002027
 20
96.4399996543
 30
0.0
 11
116.4750002027
 21
99.8899999404
 31
0.0
  0
SPLINE
  5
27D
330
1F
100
AcDbEntity
  8
0
  6
Continuous
 62
     7
370
    25
100
AcDbSpline
210
0.0
220
0.0
230
1.0
 70
     8
 71
     3
 72
    23
 73
    19
 74
     0
 42
0.000000001
 43
0.00000001
 40
0.0
 40
0.0
 40
0.0
 40
0.0
 40
0.0847278238301138
 40
0.1690971393692745
 40
0.226215819956505
 40
0.2849765661091427
 40
0.3432009562028188
 40
0.4029900659604064
 40
0.4672124627457595
 40
0.5320102824871364
 40
0.6024269487471596
 40
0.6579469815317259
 40
0.7149580615114979
 40
0.77333637432419
 40
0.833337634120011
 40
0.9223590647880014
 40
0.9665038364020992
 40
0.9999999999999999
 40
0.9999999999999999
 40
0.9999999999999999
 40
0.9999999999999999
 10
76.90000009536745
 20
94.99000044107436
 30
0.0
 10
76.90500865438243
 20
94.98580219771623
 30
0.0
 10
76.91500457972916
 20
94.9774234749998
 30
0.0
 10
76.98045974332561
 20
94.92388716985101
 30
0.0
 10
77.05611755208683
 20
94.86529114561417
 30
0.0
 10
77.13469362599942
 20
94.80830569166406
 30
0.0
 10
77.22546473172507
 20
94.7495277789182
 30
0.0
 10
77.33084325503782
 20
94.69399432505426
 30
0.0
 10
77.45514570634407
 20
94.65317430950768
 30
0.0
 10
77.59809599678516
 20
94.6529656368949
 30
0.0
 10
77.72333595283101
 20
94.69586898403693
 30
0.0
 10
77.8282890695288
 20
94.75192503092308
 30
0.0
 10
77.91596811635532
 20
94.80879517202291
 30
0.0
 10
77.99495220513047
 20
94.86605330615471
 30
0.0
 10
78.07371490372232
 20
94.92720324836645
 30
0.0
 10
78.12491318384814
 20
94.96915001583504
 30
0.0
 10
78.14792256708516
 20
94.98826749064057
 30
0.0
 10
78.14836645645516
 20
94.98863804941406
 30
0.0
 10
78.1485579609871
 20
94.98879791736603
 30
0.0
  0
SPLINE
  5
27E
330
1F
100
AcDbEntity
  8
0
  6
Continuous
 62
     7
370
    25
100
AcDbSpline
210
0.0
220
0.0
230
1.0
 70
     8
 71
     3
 72
    23
 73
    19
 74
     0
 42
0.000000001
 43
0.00000001
 40
0.0
 40
0.0
 40
0.0
 40
0.0
 40
0.012296829288374
 40
0.0911704722490751
 40
0.1711912029192714
 40
0.2286036396513912
 40
0.2876671445587646
 40
0.3461432176367805
 40
0.4062282048053937
 40
0.4698572624091492
 40
0.5340285491816238
 40
0.6052652509257952
 40
0.6614962055935424
 40
0.719244089894579
 40
0.7781600605078495
 40
0.8387779426551554
 40
0.9269079425428949
 40
1.0
 40
1.0
 40
1.0
 40
1.0
 10
112.098557472229
 20
94.98879791736603
 30
0.0
 10
112.0989629067732
 20
94.98913595009542
 30
0.0
 10
112.1019688571685
 20
94.99164217367971
 30
0.0
 10
112.0761989201031
 20
94.97011677218204
 30
0.0
 10
112.0165334480012
 20
94.92154611557876
 30
0.0
 10
111.9409305460303
 20
94.86304985234418
 30
0.0
 10
111.8617086775451
 20
94.80581078945869
 30
0.0
 10
111.769942218867
 20
94.74678377996348
 30
0.0
 10
111.6639861963619
 20
94.69171921400107
 30
0.0
 10
111.5395945288438
 20
94.6523877924961
 30
0.0
 10
111.3970230207634
 20
94.65389857405822
 30
0.0
 10
111.271773995391
 20
94.69801334543
 30
0.0
 10
111.1661586423708
 20
94.75523609310675
 30
0.0
 10
111.0781911455139
 20
94.81283331723654
 30
0.0
 10
110.9990761460528
 20
94.87057028558038
 30
0.0
 10
110.92224564334
 20
94.93044632147976
 30
0.0
 10
110.8619773842003
 20
94.97997872529764
 30
0.0
 10
110.8537359603012
 20
94.98687426224392
 30
0.0
 10
110.8499996066093
 20
94.99000044107436
 30
0.0
  0
LINE
  5
27F
330
1F
100
AcDbEntity
  8
0
  6
Continuous
 62
     7
370
    25
100
AcDbLine
 10
113.9749996066
 20
94.2399996662
 30
0.0
 11
113.9749996066
 21
93.4900003815
 31
0.0
  0
LINE
  5
280
330
1F
100
AcDbEntity
  8
0
  6
Continuous
 62
     7
370
    25
100
AcDbLine
 10
113.9749996066
 20
94.9900004411
 30
0.0
 11
113.9749996066
 21
94.2399996662
 31
0.0
  0
LINE
  5
281
330
1F
100
AcDbEntity
  8
0
  6
Continuous
 62
     7
370
    25
100
AcDbLine
 10
75.0250003934
 20
94.9900004411
 30
0.0
 11
75.0250003934
 21
93.4900003815
 31
0.0
  0
CIRCLE
  5
282
330
1F
100
AcDbEntity
  8
0
  6
Continuous
 62
     7
370
    25
100
AcDbCircle
 10
75.9000000325
 20
94.24
 30
0.0
 40
0.75
  0
LINE
  5
283
330
1F
100
AcDbEntity
  8
0
  6
Continuous
 62
     7
370
    25
100
AcDbLine
 10
72.3500005603
 20
99.8899999404
 30
0.0
 11
116.6499994397
 21
99.8899999404
 31
0.0
  0
LINE
  5
284
330
1F
100
AcDbEntity
  8
0
  6
Continuous
 62
     7
370
    25
100
AcDbLine
 10
72.3500005603
 20
125.8899997318
 30
0.0
 11
72.3500005603
 21
99.8899999404
 31
0.0
  0
LINE
  5
285
330
1F
100
AcDbEntity
  8
0
  6
Continuous
 62
     7
370
    25
100
AcDbLine
 10
116.6499994397
 20
125.8899997318
 30
0.0
 11
72.3500005603
 21
125.8899997318
 31
0.0
  0
LINE
  5
286
330
1F
100
AcDbEntity
  8
0
  6
Continuous
 62
     7
370
    25
100
AcDbLine
 10
116.6499994397
 20
99.8899999404
 30
0.0
 11
116.6499994397
 21
125.8899997318
 31
0.0
  0
LINE
  5
287
330
1F
100
AcDbEntity
  8
0
  6
Continuous
 62
     7
370
    25
100
AcDbLine
 10
72.2750000358
 20
101.39
 30
0.0
 11
72.2750000358
 21
99.9149996185
 31
0.0
  0
LINE
  5
288
330
1F
100
AcDbEntity
  8
0
  6
Continuous
 62
     7
370
    25
100
AcDbLine
 10
72.3500005603
 20
101.39
 30
0.0
 11
72.2750000358
 21
101.39
 31
0.0
  0
LINE
  5
289
330
1F
100
AcDbEntity
  8
0
  6
Continuous
 62
     7
370
    25
100
AcDbLine
 10
72.3500005603
 20
99.8650002623
 30
0.0
 11
72.3500005603
 21
99.8899999404
 31
0.0
  0
ARC
  5
28A
330
1F
100
AcDbEntity
  8
0
  6
Continuous
 62
     7
370
    25
100
AcDbCircle
 10
72.3990734406
 20
99.8745810737
 30
0.0
 40
0.049999995000013
100
AcDbArc
 50
191.0474249458
 51
271.0618139955
  0
LINE
  5
28B
330
1F
100
AcDbEntity
  8
0
  6
Continuous
 62
     7
370
    25
100
AcDbLine
 10
72.5000001192
 20
99.8245898032
 30
0.0
 11
72.3999999166
 21
99.8245898032
 31
0.0
  0
ARC
  5
28C
330
1F
100
AcDbEntity
  8
0
  6
Continuous
 62
     7
370
    25
100
AcDbCircle
 10
72.5009265344
 20
99.8745810737
 30
0.0
 40
0.0499999950000134
100
AcDbArc
 50
268.9381860046
 51
298.7814548012
  0
LINE
  5
28D
330
1F
100
AcDbEntity
  8
0
  6
Continuous
 62
     7
370
    25
100
AcDbLine
 10
72.175409615
 20
99.7645902777
 30
0.0
 11
72.5249997973
 21
99.7645902777
 31
0.0
  0
ARC
  5
28E
330
1F
100
AcDbEntity
  8
0
  6
Continuous
 62
     7
370
    25
100
AcDbCircle
 10
72.174998323
 20
99.714591364
 30
0.0
 40
0.0499999950000004
100
AcDbArc
 50
89.5282858826
 51
179.5282859575
  0
LINE
  5
28F
330
1F
100
AcDbEntity
  8
0
  6
Continuous
 62
     7
370
    25
100
AcDbLine
 10
72.1250004768
 20
98.9652040744
 30
0.0
 11
72.1250004768
 21
99.7150036836
 31
0.0
  0
ARC
  5
290
330
1F
100
AcDbEntity
  8
0
  6
Continuous
 62
     7
370
    25
100
AcDbCircle
 10
72.1750000175
 20
98.9652038215
 30
0.0
 40
0.0499999950000074
100
AcDbArc
 50
179.9999999504
 51
258.4630409672
  0
ARC
  5
291
330
1F
100
AcDbEntity
  8
0
  6
Continuous
 62
     7
370
    25
100
AcDbCircle
 10
72.1600000166
 20
98.891719137
 30
0.0
 40
0.0249999975000148
100
AcDbArc
 50
344.3090402466
 51
78.4630354664
  0
ARC
  5
292
330
1F
100
AcDbEntity
  8
0
  6
Continuous
 62
     7
370
    25
100
AcDbCircle
 10
72.1359316619
 20
98.8984803628
 30
0.0
 40
0.049999994999991
100
AcDbArc
 50
275.8375897921
 51
344.3090250343
  0
ARC
  5
293
330
1F
100
AcDbEntity
  8
0
  6
Continuous
 62
     7
370
    25
100
AcDbCircle
 10
72.140000021
 20
98.858687799
 30
0.0
 40
0.0099999990000015
100
AcDbArc
 50
180.0
 51
275.8375885099
  0
LINE
  5
294
330
1F
100
AcDbEntity
  8
0
  6
Continuous
 62
     7
370
    25
100
AcDbLine
 10
72.1299998164
 20
98.8652038717
 30
0.0
 11
72.1299998164
 21
98.8586875939
 31
0.0
  0
ARC
  5
295
330
1F
100
AcDbEntity
  8
0
  6
Continuous
 62
     7
370
    25
100
AcDbCircle
 10
72.120000023
 20
98.8652038315
 30
0.0
 40
0.0099999990000157
100
AcDbArc
 50
0.0
 51
90.0
  0
LINE
  5
296
330
1F
100
AcDbEntity
  8
0
  6
Continuous
 62
     7
370
    25
100
AcDbLine
 10
72.0250002742
 20
98.875204041
 30
0.0
 11
72.1199996471
 21
98.875204041
 31
0.0
  0
LINE
  5
297
330
1F
100
AcDbEntity
  8
0
  6
Continuous
 62
     7
370
    25
100
AcDbLine
 10
72.0250002742
 20
99.8650002623
 30
0.0
 11
72.0250002742
 21
98.875204041
 31
0.0
  0
LINE
  5
298
330
1F
100
AcDbEntity
  8
0
  6
Continuous
 62
     7
370
    25
100
AcDbLine
 10
72.2250006795
 20
99.8650002623
 30
0.0
 11
72.0250002742
 21
99.8650002623
 31
0.0
  0
ARC
  5
299
330
1F
100
AcDbEntity
  8
0
  6
Continuous
 62
     7
370
    25
100
AcDbCircle
 10
72.2250000125
 20
99.9149999975
 30
0.0
 40
0.0499999950000074
100
AcDbArc
 50
270.0
 51
0.0
  0
LINE
  5
29A
330
1F
100
AcDbEntity
  8
0
  6
Continuous
 62
     7
370
    25
100
AcDbLine
 10
116.9749997258
 20
99.8650002623
 30
0.0
 11
116.7749993205
 21
99.8650002623
 31
0.0
  0
LINE
  5
29B
330
1F
100
AcDbEntity
  8
0
  6
Continuous
 62
     7
370
    25
100
AcDbLine
 10
116.9749997258
 20
98.875204041
 30
0.0
 11
116.9749997258
 21
99.8650002623
 31
0.0
  0
LINE
  5
29C
330
1F
100
AcDbEntity
  8
0
  6
Continuous
 62
     7
370
    25
100
AcDbLine
 10
116.8800003529
 20
98.875204041
 30
0.0
 11
116.9749997258
 21
98.875204041
 31
0.0
  0
ARC
  5
29D
330
1F
100
AcDbEntity
  8
0
  6
Continuous
 62
     7
370
    25
100
AcDbCircle
 10
116.879999977
 20
98.8652038315
 30
0.0
 40
0.0099999990000157
100
AcDbArc
 50
90.0
 51
180.0
  0
LINE
  5
29E
330
1F
100
AcDbEntity
  8
0
  6
Continuous
 62
     7
370
    25
100
AcDbLine
 10
116.8700001836
 20
98.8586875939
 30
0.0
 11
116.8700001836
 21
98.8652038717
 31
0.0
  0
ARC
  5
29F
330
1F
100
AcDbEntity
  8
0
  6
Continuous
 62
     7
370
    25
100
AcDbCircle
 10
116.859999979
 20
98.858687799
 30
0.0
 40
0.0099999989999873
100
AcDbArc
 50
264.1624114901
 51
0.0
  0
ARC
  5
2A0
330
1F
100
AcDbEntity
  8
0
  6
Continuous
 62
     7
370
    25
100
AcDbCircle
 10
116.8640683381
 20
98.8984803628
 30
0.0
 40
0.0499999950000047
100
AcDbArc
 50
195.6909749657
 51
264.1624102079
  0
ARC
  5
2A1
330
1F
100
AcDbEntity
  8
0
  6
Continuous
 62
     7
370
    25
100
AcDbCircle
 10
116.8399999834
 20
98.891719137
 30
0.0
 40
0.0249999975000148
100
AcDbArc
 50
101.5369645336
 51
195.6909597534
  0
ARC
  5
2A2
330
1F
100
AcDbEntity
  8
0
  6
Continuous
 62
     7
370
    25
100
AcDbCircle
 10
116.8249999825
 20
98.9652038215
 30
0.0
 40
0.0499999950000074
100
AcDbArc
 50
281.5369590328
 51
0.0000000496
  0
LINE
  5
2A3
330
1F
100
AcDbEntity
  8
0
  6
Continuous
 62
     7
370
    25
100
AcDbLine
 10
116.8749995232
 20
99.7150036836
 30
0.0
 11
116.8749995232
 21
98.9652040744
 31
0.0
  0
ARC
  5
2A4
330
1F
100
AcDbEntity
  8
0
  6
Continuous
 62
     7
370
    25
100
AcDbCircle
 10
116.825001677
 20
99.714591364
 30
0.0
 40
0.0499999950000003
100
AcDbArc
 50
0.4717140425
 51
90.4717141174
  0
LINE
  5
2A5
330
1F
100
AcDbEntity
  8
0
  6
Continuous
 62
     7
370
    25
100
AcDbLine
 10
116.4750002027
 20
99.7645902777
 30
0.0
 11
116.824590385
 21
99.7645902777
 31
0.0
  0
ARC
  5
2A6
330
1F
100
AcDbEntity
  8
0
  6
Continuous
 62
     7
370
    25
100
AcDbCircle
 10
116.4990734656
 20
99.8745810737
 30
0.0
 40
0.0499999950000134
100
AcDbArc
 50
241.2185451989
 51
271.0618139954
  0
LINE
  5
2A7
330
1F
100
AcDbEntity
  8
0
  6
Continuous
 62
     7
370
    25
100
AcDbLine
 10
116.6000000834
 20
99.8245898032
 30
0.0
 11
116.4999998808
 21
99.8245898032
 31
0.0
  0
ARC
  5
2A8
330
1F
100
AcDbEntity
  8
0
  6
Continuous
 62
     7
370
    25
100
AcDbCircle
 10
116.6009265594
 20
99.8745810737
 30
0.0
 40
0.049999995000013
100
AcDbArc
 50
268.9381860045
 51
348.9525750542
  0
ARC
  5
2A9
330
1F
100
AcDbEntity
  8
0
  6
Continuous
 62
     7
370
    25
100
AcDbCircle
 10
116.7749999875
 20
99.9149999975
 30
0.0
 40
0.0499999950000074
100
AcDbArc
 50
180.0
 51
270.0
  0
LINE
  5
2AA
330
1F
100
AcDbEntity
  8
0
  6
Continuous
 62
     7
370
    25
100
AcDbLine
 10
116.6499994397
 20
99.8899999404
 30
0.0
 11
116.6499994397
 21
99.8650002623
 31
0.0
  0
LINE
  5
2AB
330
1F
100
AcDbEntity
  8
0
  6
Continuous
 62
     7
370
    25
100
AcDbLine
 10
116.7249999642
 20
99.9149996185
 30
0.0
 11
116.7249999642
 21
101.39
 31
0.0
  0
LINE
  5
2AC
330
1F
100
AcDbEntity
  8
0
  6
Continuous
 62
     7
370
    25
100
AcDbLine
 10
116.7249999642
 20
101.39
 30
0.0
 11
116.6499994397
 21
101.39
 31
0.0
  0
LINE
  5
2AD
330
1F
100
AcDbEntity
  8
0
  6
Continuous
 62
     7
370
    25
100
AcDbLine
 10
116.6499994397
 20
127.8900000596
 30
0.0
 11
72.3500005603
 21
127.8900000596
 31
0.0
  0
LINE
  5
2AE
330
1F
100
AcDbEntity
  8
0
  6
Continuous
 62
     7
370
    25
100
AcDbLine
 10
72.3500005603
 20
127.8900000596
 30
0.0
 11
72.3500005603
 21
125.8899997318
 31
0.0
  0
LINE
  5
2AF
330
1F
100
AcDbEntity
  8
0
  6
Continuous
 62
     7
370
    25
100
AcDbLine
 10
116.6499994397
 20
127.8900000596
 30
0.0
 11
116.6499994397
 21
125.8899997318
 31
0.0
  0
LINE
  5
2B0
330
1F
100
AcDbEntity
  8
0
  6
Continuous
 62
     7
370
    25
100
AcDbLine
 10
255.7500003457
 20
204.0150000548
 30
0.0
 11
257.530042398
 21
204.0150000548
 31
0.0
  0
LINE
  5
2B1
330
1F
100
AcDbEntity
  8
0
  6
Continuous
 62
     7
370
    25
100
AcDbLine
 10
257.5299172282
 20
205.2650003529
 30
0.0
 11
255.7500003457
 21
205.2650003529
 31
0.0
  0
LINE
  5
2B2
330
1F
100
AcDbEntity
  8
0
  6
Continuous
 62
     7
370
    25
100
AcDbLine
 10
257.530042398
 20
205.2650003529
 30
0.0
 11
257.5299172282
 21
205.2650003529
 31
0.0
  0
LINE
  5
2B3
330
1F
100
AcDbEntity
  8
0
  6
Continuous
 62
     7
370
    25
100
AcDbLine
 10
257.1999995589
 20
214.421115706
 30
0.0
 11
257.1999995589
 21
212.5400005674
 31
0.0
  0
LINE
  5
2B4
330
1F
100
AcDbEntity
  8
0
  6
Continuous
 62
     7
370
    25
100
AcDbLine
 10
257.1999995589
 20
259.2210112906
 30
0.0
 11
257.1999995589
 21
215.6589879489
 31
0.0
  0
LINE
  5
2B5
330
1F
100
AcDbEntity
  8
0
  6
Continuous
 62
     7
370
    25
100
AcDbLine
 10
257.1999995589
 20
262.3400001621
 30
0.0
 11
257.1999995589
 21
260.4588835335
 31
0.0
  0
LINE
  5
2B6
330
1F
100
AcDbEntity
  8
0
  6
Continuous
 62
     7
370
    25
100
AcDbLine
 10
258.6999996185
 20
212.5400005674
 30
0.0
 11
258.6999996185
 21
262.3400001621
 31
0.0
  0
LINE
  5
2B7
330
1F
100
AcDbEntity
  8
0
  6
Continuous
 62
     7
370
    25
100
AcDbLine
 10
255.7500003457
 20
259.2150001621
 30
0.0
 11
257.2050018787
 21
259.2150001621
 31
0.0
  0
LINE
  5
2B8
330
1F
100
AcDbEntity
  8
0
  6
Continuous
 62
     7
370
    25
100
AcDbLine
 10
257.2050883055
 20
260.46499897
 30
0.0
 11
255.7500003457
 21
260.46499897
 31
0.0
  0
LINE
  5
2B9
330
1F
100
AcDbEntity
  8
0
  6
Continuous
 62
     7
370
    25
100
AcDbLine
 10
255.7500003457
 20
214.4150002694
 30
0.0
 11
257.2050883055
 21
214.4150002694
 31
0.0
  0
LINE
  5
2BA
330
1F
100
AcDbEntity
  8
0
  6
Continuous
 62
     7
370
    25
100
AcDbLine
 10
257.2050018787
 20
215.6649998224
 30
0.0
 11
255.7500003457
 21
215.6649998224
 31
0.0
  0
LINE
  5
2BB
330
1F
100
AcDbEntity
  8
0
  6
Continuous
 62
     7
370
    25
100
AcDbLine
 10
253.3413125753
 20
182.5049995279
 30
0.0
 11
253.3413125753
 21
272.4900006151
 31
0.0
  0
LINE
  5
2BC
330
1F
100
AcDbEntity
  8
0
  6
Continuous
 62
     7
370
    25
100
AcDbLine
 10
250.3865002275
 20
176.5650003052
 30
0.0
 11
250.3865002275
 21
176.6596405602
 31
0.0
  0
LINE
  5
2BD
330
1F
100
AcDbEntity
  8
0
  6
Continuous
 62
     7
370
    25
100
AcDbLine
 10
248.503500092
 20
176.6596405602
 30
0.0
 11
248.503500092
 21
176.5650003052
 31
0.0
  0
ARC
  5
2BE
330
1F
100
AcDbEntity
  8
0
  6
Continuous
 62
     7
370
    25
100
AcDbCircle
 10
250.3115
 20
176.565
 30
0.0
 40
0.0750000000000171
100
AcDbArc
 50
270.0
 51
0.0
  0
ARC
  5
2BF
330
1F
100
AcDbEntity
  8
0
  6
Continuous
 62
     7
370
    25
100
AcDbCircle
 10
248.5785
 20
176.565
 30
0.0
 40
0.0750000000000455
100
AcDbArc
 50
180.0
 51
270.0
  0
ARC
  5
2C0
330
1F
100
AcDbEntity
  8
0
  6
Continuous
 62
     7
370
    25
100
AcDbCircle
 10
250.3115
 20
176.6596408368
 30
0.0
 40
0.0749999999999886
100
AcDbArc
 50
0.0
 51
44.0751062253
  0
ARC
  5
2C1
330
1F
100
AcDbEntity
  8
0
  6
Continuous
 62
     7
370
    25
100
AcDbCircle
 10
248.5785
 20
176.6596408368
 30
0.0
 40
0.0750000000000455
100
AcDbArc
 50
135.9248937747
 51
180.0
  0
LINE
  5
2C2
330
1F
100
AcDbEntity
  8
0
  6
Continuous
 62
     7
370
    25
100
AcDbLine
 10
250.3653823018
 20
176.7118095255
 30
0.0
 11
250.0827966809
 21
177.0036696291
 31
0.0
  0
LINE
  5
2C3
330
1F
100
AcDbEntity
  8
0
  6
Continuous
 62
     7
370
    25
100
AcDbLine
 10
248.8072036386
 20
177.0036696291
 30
0.0
 11
248.5246180177
 21
176.7118095255
 31
0.0
  0
ARC
  5
2C4
330
1F
100
AcDbEntity
  8
0
  6
Continuous
 62
     7
370
    25
100
AcDbCircle
 10
250.0289145804
 20
176.9515
 30
0.0
 40
0.0750000000000171
100
AcDbArc
 50
44.0751062253
 51
90.0
  0
ARC
  5
2C5
330
1F
100
AcDbEntity
  8
0
  6
Continuous
 62
     7
370
    25
100
AcDbCircle
 10
248.8610854196
 20
176.9515
 30
0.0
 40
0.0750000000000171
100
AcDbArc
 50
90.0
 51
135.9248937747
  0
LINE
  5
2C6
330
1F
100
AcDbEntity
  8
0
  6
Continuous
 62
     7
370
    25
100
AcDbLine
 10
249.8606918931
 20
177.0265011883
 30
0.0
 11
249.8606918931
 21
177.1874992943
 31
0.0
  0
LINE
  5
2C7
330
1F
100
AcDbEntity
  8
0
  6
Continuous
 62
     7
370
    25
100
AcDbLine
 10
249.0293076813
 20
177.1874992943
 30
0.0
 11
249.0293076813
 21
177.0265011883
 31
0.0
  0
LINE
  5
2C8
330
1F
100
AcDbEntity
  8
0
  6
Continuous
 62
     7
370
    25
100
AcDbLine
 10
249.6909997046
 20
177.1874992943
 30
0.0
 11
249.6909997046
 21
178.1049995518
 31
0.0
  0
LINE
  5
2C9
330
1F
100
AcDbEntity
  8
0
  6
Continuous
 62
     7
370
    25
100
AcDbLine
 10
249.1989998698
 20
178.1049995518
 30
0.0
 11
249.1989998698
 21
177.1874992943
 31
0.0
  0
LINE
  5
2CA
330
1F
100
AcDbEntity
  8
0
  6
Continuous
 62
     7
370
    25
100
AcDbLine
 10
255.7500003457
 20
272.7400003767
 30
0.0
 11
255.7500003457
 21
282.4900000191
 31
0.0
  0
LINE
  5
2CB
330
1F
100
AcDbEntity
  8
0
  6
Continuous
 62
     7
370
    25
100
AcDbLine
 10
255.7500003457
 20
272.7400003767
 30
0.0
 11
252.3000000596
 21
272.7400003767
 31
0.0
  0
LINE
  5
2CC
330
1F
100
AcDbEntity
  8
0
  6
Continuous
 62
     7
370
    25
100
AcDbLine
 10
255.7500003457
 20
282.4900000191
 30
0.0
 11
252.3000000596
 21
282.4900000191
 31
0.0
  0
LINE
  5
2CD
330
1F
100
AcDbEntity
  8
0
  6
Continuous
 62
     7
370
    25
100
AcDbLine
 10
255.7500003457
 20
207.1400000548
 30
0.0
 11
255.7500003457
 21
181.3399999237
 31
0.0
  0
LINE
  5
2CE
330
1F
100
AcDbEntity
  8
0
  6
Continuous
 62
     7
370
    25
100
AcDbLine
 10
252.7999995828
 20
182.5049995279
 30
0.0
 11
252.7999995828
 21
181.3399999237
 31
0.0
  0
LINE
  5
2CF
330
1F
100
AcDbEntity
  8
0
  6
Continuous
 62
     7
370
    25
100
AcDbLine
 10
255.7500003457
 20
181.3399999237
 30
0.0
 11
252.7999995828
 21
181.3399999237
 31
0.0
  0
LINE
  5
2D0
330
1F
100
AcDbEntity
  8
0
  6
Continuous
 62
     7
370
    25
100
AcDbLine
 10
255.7500003457
 20
207.1400000548
 30
0.0
 11
253.3413125753
 21
207.1400000548
 31
0.0
  0
CIRCLE
  5
2D1
330
1F
100
AcDbEntity
  8
0
  6
Continuous
 62
     7
370
    25
100
AcDbCircle
 10
257.95
 20
204.64
 30
0.0
 40
0.75
  0
LINE
  5
2D2
330
1F
100
AcDbEntity
  8
0
  6
Continuous
 62
     7
370
    25
100
AcDbLine
 10
255.7500003457
 20
272.3399995661
 30
0.0
 11
255.7500003457
 21
207.5399993753
 31
0.0
  0
LINE
  5
2D3
330
1F
100
AcDbEntity
  8
0
  6
Continuous
 62
     7
370
    25
100
AcDbLine
 10
255.7500003457
 20
207.5399993753
 30
0.0
 11
253.3413125753
 21
207.5399993753
 31
0.0
  0
LINE
  5
2D4
330
1F
100
AcDbEntity
  8
0
  6
Continuous
 62
     7
370
    25
100
AcDbLine
 10
255.7500003457
 20
272.3399995661
 30
0.0
 11
253.3413125753
 21
272.3399995661
 31
0.0
  0
SPLINE
  5
2D5
330
1F
100
AcDbEntity
  8
0
  6
Continuous
 62
     7
370
    25
100
AcDbSpline
210
0.0
220
0.0
230
1.0
 70
     8
 71
     3
 72
    16
 73
    12
 74
     0
 42
0.000000001
 43
0.00000001
 40
0.0
 40
0.0
 40
0.0
 40
0.0
 40
0.1262569039018805
 40
0.2133365346680137
 40
0.3027667483737704
 40
0.4286494159781943
 40
0.5581612595538334
 40
0.6573665121501128
 40
0.7591247586145489
 40
0.9245959097880666
 40
1.0
 40
1.0
 40
1.0
 40
1.0
 10
257.5354217171669
 20
215.0399996733665
 30
0.0
 10
257.5311806154343
 20
215.0841792115687
 30
0.0
 10
257.5240144176358
 20
215.1588294626996
 30
0.0
 10
257.4848773096266
 20
215.2540547729836
 30
0.0
 10
257.4394099952682
 20
215.3412557875753
 30
0.0
 10
257.3817828721679
 20
215.4304052567708
 30
0.0
 10
257.3239721114707
 20
215.50982656781
 30
0.0
 10
257.275346899046
 20
215.5725416055135
 30
0.0
 10
257.2315677166696
 20
215.6270374211515
 30
0.0
 10
257.2003384181259
 20
215.6645987150438
 30
0.0
 10
257.2038900640557
 20
215.6603256104949
 30
0.0
 10
257.2050018787384
 20
215.6589879488945
 30
0.0
  0
SPLINE
  5
2D6
330
1F
100
AcDbEntity
  8
0
  6
Continuous
 62
     7
370
    25
100
AcDbSpline
210
0.0
220
0.0
230
1.0
 70
     8
 71
     3
 72
    16
 73
    12
 74
     0
 42
0.000000001
 43
0.00000001
 40
0.0
 40
0.0
 40
0.0
 40
0.0
 40
0.0779577163425138
 40
0.2330771713602418
 40
0.3996269677834068
 40
0.5213008823390218
 40
0.646480090063529
 40
0.7420400438397607
 40
0.8396663204194994
 40
0.9663708497470863
 40
1.0
 40
1.0
 40
1.0
 40
1.0
 10
257.2050883054733
 20
214.4211157059669
 30
0.0
 10
257.2039898394489
 20
214.4197931222569
 30
0.0
 10
257.2007056571279
 20
214.4158388752049
 30
0.0
 10
257.2358290515367
 20
214.4581197403829
 30
0.0
 10
257.2925321715469
 20
214.5288143747904
 30
0.0
 10
257.3581861459463
 20
214.6163212630354
 30
0.0
 10
257.4153681279972
 20
214.7001694759568
 30
0.0
 10
257.4664102503727
 20
214.787690710582
 30
0.0
 10
257.5107703380864
 20
214.8843682105939
 30
0.0
 10
257.5336435882321
 20
214.9723360265957
 30
0.0
 10
257.5351134263198
 20
215.0282681939595
 30
0.0
 10
257.5354217171669
 20
215.0399996733665
 30
0.0
  0
SPLINE
  5
2D7
330
1F
100
AcDbEntity
  8
0
  6
Continuous
 62
     7
370
    25
100
AcDbSpline
210
0.0
220
0.0
230
1.0
 70
     8
 71
     3
 72
    16
 73
    12
 74
     0
 42
0.000000001
 43
0.00000001
 40
0.0
 40
0.0
 40
0.0
 40
0.0
 40
0.1262570005891151
 40
0.2133366980406209
 40
0.3027675695117488
 40
0.4286498054497515
 40
0.5581622041888881
 40
0.6573667653293241
 40
0.7591247821023702
 40
0.9245958792651243
 40
1.0
 40
1.0
 40
1.0
 40
1.0
 10
257.5354217171669
 20
259.8399995660782
 30
0.0
 10
257.5311806311359
 20
259.7958200116535
 30
0.0
 10
257.5240144598683
 20
259.7211697331114
 30
0.0
 10
257.4848771224729
 20
259.6259443957852
 30
0.0
 10
257.4394103974049
 20
259.538742749586
 30
0.0
 10
257.3817824410993
 20
259.4495942209229
 30
0.0
 10
257.3239725398718
 20
259.3701715510156
 30
0.0
 10
257.2753467378356
 20
259.3074586170773
 30
0.0
 10
257.2315677140081
 20
259.252963023301
 30
0.0
 10
257.2003384139455
 20
259.2154042834426
 30
0.0
 10
257.2038900626337
 20
259.2196745246308
 30
0.0
 10
257.2050018787384
 20
259.2210112905503
 30
0.0
  0
SPLINE
  5
2D8
330
1F
100
AcDbEntity
  8
0
  6
Continuous
 62
     7
370
    25
100
AcDbSpline
210
0.0
220
0.0
230
1.0
 70
     8
 71
     3
 72
    16
 73
    12
 74
     0
 42
0.000000001
 43
0.00000001
 40
0.0
 40
0.0
 40
0.0
 40
0.0
 40
0.0779576797457551
 40
0.2330765411544263
 40
0.3996269281511914
 40
0.5213003676711755
 40
0.6464800275262379
 40
0.7420382595820629
 40
0.8396663563476258
 40
0.96637015144075
 40
1.0
 40
1.0
 40
1.0
 40
1.0
 10
257.2050883054733
 20
260.4588835334778
 30
0.0
 10
257.2039898289087
 20
260.4602057307737
 30
0.0
 10
257.200705622413
 20
260.4641588136957
 30
0.0
 10
257.2358293693591
 20
260.4218824095354
 30
0.0
 10
257.2925317523212
 20
260.3511842087642
 30
0.0
 10
257.3581866103369
 20
260.2636790792687
 30
0.0
 10
257.415367207566
 20
260.17982968971
 30
0.0
 10
257.4664113531261
 20
260.0923102769895
 30
0.0
 10
257.5107695088443
 20
259.995631425859
 30
0.0
 10
257.5336437153716
 20
259.9076635067021
 30
0.0
 10
257.5351134430147
 20
259.8517312999738
 30
0.0
 10
257.5354217171669
 20
259.8399995660782
 30
0.0
  0
LINE
  5
2D9
330
1F
100
AcDbEntity
  8
0
  6
Continuous
 62
     7
370
    25
100
AcDbLine
 10
258.6999996185
 20
212.5400005674
 30
0.0
 11
257.1999995589
 21
212.5400005674
 31
0.0
  0
LINE
  5
2DA
330
1F
100
AcDbEntity
  8
0
  6
Continuous
 62
     7
370
    25
100
AcDbLine
 10
258.6999996185
 20
262.3400001621
 30
0.0
 11
257.1999995589
 21
262.3400001621
 31
0.0
  0
LINE
  5
2DB
330
1F
100
AcDbEntity
  8
0
  6
Continuous
 62
     7
370
    25
100
AcDbLine
 10
232.301000002
 20
274.4899987078
 30
0.0
 11
228.7009997845
 21
274.4899987078
 31
0.0
  0
ARC
  5
2DC
330
1F
100
AcDbEntity
  8
0
  6
Continuous
 62
     7
370
    25
100
AcDbCircle
 10
232.301
 20
274.69
 30
0.0
 40
0.2000000000000455
100
AcDbArc
 50
270.0
 51
90.0
  0
LINE
  5
2DD
330
1F
100
AcDbEntity
  8
0
  6
Continuous
 62
     7
370
    25
100
AcDbLine
 10
228.7009997845
 20
274.8899995184
 30
0.0
 11
232.301000002
 21
274.8899995184
 31
0.0
  0
ARC
  5
2DE
330
1F
100
AcDbEntity
  8
0
  6
Continuous
 62
     7
370
    25
100
AcDbCircle
 10
228.701
 20
274.69
 30
0.0
 40
0.2000000000000455
100
AcDbArc
 50
90.0
 51
270.0
  0
LINE
  5
2DF
330
1F
100
AcDbEntity
  8
0
  6
Continuous
 62
     7
370
    25
100
AcDbLine
 10
232.301000002
 20
278.7899999714
 30
0.0
 11
228.7009997845
 21
278.7899999714
 31
0.0
  0
ARC
  5
2E0
330
1F
100
AcDbEntity
  8
0
  6
Continuous
 62
     7
370
    25
100
AcDbCircle
 10
232.301
 20
278.99
 30
0.0
 40
0.2000000000000455
100
AcDbArc
 50
270.0
 51
90.0
  0
LINE
  5
2E1
330
1F
100
AcDbEntity
  8
0
  6
Continuous
 62
     7
370
    25
100
AcDbLine
 10
228.7009997845
 20
279.190000782
 30
0.0
 11
232.301000002
 21
279.190000782
 31
0.0
  0
ARC
  5
2E2
330
1F
100
AcDbEntity
  8
0
  6
Continuous
 62
     7
370
    25
100
AcDbCircle
 10
228.701
 20
278.99
 30
0.0
 40
0.2000000000000455
100
AcDbArc
 50
90.0
 51
270.0
  0
LINE
  5
2E3
330
1F
100
AcDbEntity
  8
0
  6
Continuous
 62
     7
370
    25
100
AcDbLine
 10
233.5509999275
 20
274.8899995184
 30
0.0
 11
234.3009999573
 21
274.8899995184
 31
0.0
  0
ARC
  5
2E4
330
1F
100
AcDbEntity
  8
0
  6
Continuous
 62
     7
370
    25
100
AcDbCircle
 10
233.551
 20
274.69
 30
0.0
 40
0.2000000000000455
100
AcDbArc
 50
90.0
 51
270.0
  0
LINE
  5
2E5
330
1F
100
AcDbEntity
  8
0
  6
Continuous
 62
     7
370
    25
100
AcDbLine
 10
234.3009999573
 20
274.4899987078
 30
0.0
 11
233.5509999275
 21
274.4899987078
 31
0.0
  0
ARC
  5
2E6
330
1F
100
AcDbEntity
  8
0
  6
Continuous
 62
     7
370
    25
100
AcDbCircle
 10
234.301
 20
274.69
 30
0.0
 40
0.1999999999999886
100
AcDbArc
 50
270.0
 51
90.0
  0
LINE
  5
2E7
330
1F
100
AcDbEntity
  8
0
  6
Continuous
 62
     7
370
    25
100
AcDbLine
 10
233.5509999275
 20
279.190000782
 30
0.0
 11
234.3009999573
 21
279.190000782
 31
0.0
  0
ARC
  5
2E8
330
1F
100
AcDbEntity
  8
0
  6
Continuous
 62
     7
370
    25
100
AcDbCircle
 10
233.551
 20
278.99
 30
0.0
 40
0.2000000000000455
100
AcDbArc
 50
90.0
 51
270.0
  0
LINE
  5
2E9
330
1F
100
AcDbEntity
  8
0
  6
Continuous
 62
     7
370
    25
100
AcDbLine
 10
234.3009999573
 20
278.7899999714
 30
0.0
 11
233.5509999275
 21
278.7899999714
 31
0.0
  0
ARC
  5
2EA
330
1F
100
AcDbEntity
  8
0
  6
Continuous
 62
     7
370
    25
100
AcDbCircle
 10
234.301
 20
278.99
 30
0.0
 40
0.2000000000000455
100
AcDbArc
 50
270.0
 51
90.0
  0
LINE
  5
2EB
330
1F
100
AcDbEntity
  8
0
  6
Continuous
 62
     7
370
    25
100
AcDbLine
 10
246.2989999533
 20
274.8899995184
 30
0.0
 11
249.8989997983
 21
274.8899995184
 31
0.0
  0
ARC
  5
2EC
330
1F
100
AcDbEntity
  8
0
  6
Continuous
 62
     7
370
    25
100
AcDbCircle
 10
246.299
 20
274.69
 30
0.0
 40
0.2000000000000455
100
AcDbArc
 50
90.0
 51
270.0
  0
LINE
  5
2ED
330
1F
100
AcDbEntity
  8
0
  6
Continuous
 62
     7
370
    25
100
AcDbLine
 10
249.8989997983
 20
274.4899987078
 30
0.0
 11
246.2989999533
 21
274.4899987078
 31
0.0
  0
ARC
  5
2EE
330
1F
100
AcDbEntity
  8
0
  6
Continuous
 62
     7
370
    25
100
AcDbCircle
 10
249.899
 20
274.69
 30
0.0
 40
0.2000000000000455
100
AcDbArc
 50
270.0
 51
90.0
  0
LINE
  5
2EF
330
1F
100
AcDbEntity
  8
0
  6
Continuous
 62
     7
370
    25
100
AcDbLine
 10
246.2989999533
 20
279.190000782
 30
0.0
 11
249.8989997983
 21
279.190000782
 31
0.0
  0
ARC
  5
2F0
330
1F
100
AcDbEntity
  8
0
  6
Continuous
 62
     7
370
    25
100
AcDbCircle
 10
246.299
 20
278.99
 30
0.0
 40
0.2000000000000455
100
AcDbArc
 50
90.0
 51
270.0
  0
LINE
  5
2F1
330
1F
100
AcDbEntity
  8
0
  6
Continuous
 62
     7
370
    25
100
AcDbLine
 10
249.8989997983
 20
278.7899999714
 30
0.0
 11
246.2989999533
 21
278.7899999714
 31
0.0
  0
ARC
  5
2F2
330
1F
100
AcDbEntity
  8
0
  6
Continuous
 62
     7
370
    25
100
AcDbCircle
 10
249.899
 20
278.99
 30
0.0
 40
0.2000000000000455
100
AcDbArc
 50
270.0
 51
90.0
  0
LINE
  5
2F3
330
1F
100
AcDbEntity
  8
0
  6
Continuous
 62
     7
370
    25
100
AcDbLine
 10
226.3000002682
 20
282.4900000191
 30
0.0
 11
226.3000002682
 21
272.7400003767
 31
0.0
  0
LINE
  5
2F4
330
1F
100
AcDbEntity
  8
0
  6
Continuous
 62
     7
370
    25
100
AcDbLine
 10
226.3000002682
 20
282.4900000191
 30
0.0
 11
252.3000000596
 21
282.4900000191
 31
0.0
  0
LINE
  5
2F5
330
1F
100
AcDbEntity
  8
0
  6
Continuous
 62
     7
370
    25
100
AcDbLine
 10
252.3000000596
 20
282.4900000191
 30
0.0
 11
252.3000000596
 21
272.7400003767
 31
0.0
  0
LINE
  5
2F6
330
1F
100
AcDbEntity
  8
0
  6
Continuous
 62
     7
370
    25
100
AcDbLine
 10
226.3000002682
 20
272.7400003767
 30
0.0
 11
252.3000000596
 21
272.7400003767
 31
0.0
  0
LINE
  5
2F7
330
1F
100
AcDbEntity
  8
0
  6
Continuous
 62
     7
370
    25
100
AcDbLine
 10
246.2989999533
 20
281.3399999237
 30
0.0
 11
249.8989997983
 21
281.3399999237
 31
0.0
  0
ARC
  5
2F8
330
1F
100
AcDbEntity
  8
0
  6
Continuous
 62
     7
370
    25
100
AcDbCircle
 10
246.299
 20
281.14
 30
0.0
 40
0.2000000000000455
100
AcDbArc
 50
90.0
 51
270.0
  0
LINE
  5
2F9
330
1F
100
AcDbEntity
  8
0
  6
Continuous
 62
     7
370
    25
100
AcDbLine
 10
249.8989997983
 20
280.9399991131
 30
0.0
 11
246.2989999533
 21
280.9399991131
 31
0.0
  0
ARC
  5
2FA
330
1F
100
AcDbEntity
  8
0
  6
Continuous
 62
     7
370
    25
100
AcDbCircle
 10
249.899
 20
281.14
 30
0.0
 40
0.2000000000000455
100
AcDbArc
 50
270.0
 51
90.0
  0
LINE
  5
2FB
330
1F
100
AcDbEntity
  8
0
  6
Continuous
 62
     7
370
    25
100
AcDbLine
 10
246.2989999533
 20
277.0400016403
 30
0.0
 11
249.8989997983
 21
277.0400016403
 31
0.0
  0
ARC
  5
2FC
330
1F
100
AcDbEntity
  8
0
  6
Continuous
 62
     7
370
    25
100
AcDbCircle
 10
246.299
 20
276.84
 30
0.0
 40
0.2000000000000455
100
AcDbArc
 50
90.0
 51
270.0
  0
LINE
  5
2FD
330
1F
100
AcDbEntity
  8
0
  6
Continuous
 62
     7
370
    25
100
AcDbLine
 10
249.8989997983
 20
276.6400008297
 30
0.0
 11
246.2989999533
 21
276.6400008297
 31
0.0
  0
ARC
  5
2FE
330
1F
100
AcDbEntity
  8
0
  6
Continuous
 62
     7
370
    25
100
AcDbCircle
 10
249.899
 20
276.84
 30
0.0
 40
0.2000000000000455
100
AcDbArc
 50
270.0
 51
90.0
  0
LINE
  5
2FF
330
1F
100
AcDbEntity
  8
0
  6
Continuous
 62
     7
370
    25
100
AcDbLine
 10
233.5509999275
 20
281.3399999237
 30
0.0
 11
234.3009999573
 21
281.3399999237
 31
0.0
  0
ARC
  5
300
330
1F
100
AcDbEntity
  8
0
  6
Continuous
 62
     7
370
    25
100
AcDbCircle
 10
233.551
 20
281.14
 30
0.0
 40
0.2000000000000455
100
AcDbArc
 50
90.0
 51
270.0
  0
LINE
  5
301
330
1F
100
AcDbEntity
  8
0
  6
Continuous
 62
     7
370
    25
100
AcDbLine
 10
234.3009999573
 20
280.9399991131
 30
0.0
 11
233.5509999275
 21
280.9399991131
 31
0.0
  0
ARC
  5
302
330
1F
100
AcDbEntity
  8
0
  6
Continuous
 62
     7
370
    25
100
AcDbCircle
 10
234.301
 20
281.14
 30
0.0
 40
0.2000000000000455
100
AcDbArc
 50
270.0
 51
90.0
  0
LINE
  5
303
330
1F
100
AcDbEntity
  8
0
  6
Continuous
 62
     7
370
    25
100
AcDbLine
 10
233.5509999275
 20
277.0400016403
 30
0.0
 11
234.3009999573
 21
277.0400016403
 31
0.0
  0
ARC
  5
304
330
1F
100
AcDbEntity
  8
0
  6
Continuous
 62
     7
370
    25
100
AcDbCircle
 10
233.551
 20
276.84
 30
0.0
 40
0.2000000000000455
100
AcDbArc
 50
90.0
 51
270.0
  0
LINE
  5
305
330
1F
100
AcDbEntity
  8
0
  6
Continuous
 62
     7
370
    25
100
AcDbLine
 10
234.3009999573
 20
276.6400008297
 30
0.0
 11
233.5509999275
 21
276.6400008297
 31
0.0
  0
ARC
  5
306
330
1F
100
AcDbEntity
  8
0
  6
Continuous
 62
     7
370
    25
100
AcDbCircle
 10
234.301
 20
276.84
 30
0.0
 40
0.2000000000000455
100
AcDbArc
 50
270.0
 51
90.0
  0
LINE
  5
307
330
1F
100
AcDbEntity
  8
0
  6
Continuous
 62
     7
370
    25
100
AcDbLine
 10
232.301000002
 20
280.9399991131
 30
0.0
 11
228.7009997845
 21
280.9399991131
 31
0.0
  0
ARC
  5
308
330
1F
100
AcDbEntity
  8
0
  6
Continuous
 62
     7
370
    25
100
AcDbCircle
 10
232.301
 20
281.14
 30
0.0
 40
0.2000000000000455
100
AcDbArc
 50
270.0
 51
90.0
  0
LINE
  5
309
330
1F
100
AcDbEntity
  8
0
  6
Continuous
 62
     7
370
    25
100
AcDbLine
 10
228.7009997845
 20
281.3399999237
 30
0.0
 11
232.301000002
 21
281.3399999237
 31
0.0
  0
ARC
  5
30A
330
1F
100
AcDbEntity
  8
0
  6
Continuous
 62
     7
370
    25
100
AcDbCircle
 10
228.701
 20
281.14
 30
0.0
 40
0.2000000000000455
100
AcDbArc
 50
90.0
 51
270.0
  0
LINE
  5
30B
330
1F
100
AcDbEntity
  8
0
  6
Continuous
 62
     7
370
    25
100
AcDbLine
 10
232.301000002
 20
276.6400008297
 30
0.0
 11
228.7009997845
 21
276.6400008297
 31
0.0
  0
ARC
  5
30C
330
1F
100
AcDbEntity
  8
0
  6
Continuous
 62
     7
370
    25
100
AcDbCircle
 10
232.301
 20
276.84
 30
0.0
 40
0.2000000000000455
100
AcDbArc
 50
270.0
 51
90.0
  0
LINE
  5
30D
330
1F
100
AcDbEntity
  8
0
  6
Continuous
 62
     7
370
    25
100
AcDbLine
 10
228.7009997845
 20
277.0400016403
 30
0.0
 11
232.301000002
 21
277.0400016403
 31
0.0
  0
ARC
  5
30E
330
1F
100
AcDbEntity
  8
0
  6
Continuous
 62
     7
370
    25
100
AcDbCircle
 10
228.701
 20
276.84
 30
0.0
 40
0.2000000000000455
100
AcDbArc
 50
90.0
 51
270.0
  0
LINE
  5
30F
330
1F
100
AcDbEntity
  8
0
  6
Continuous
 62
     7
370
    25
100
AcDbLine
 10
250.6999997973
 20
182.2549997663
 30
0.0
 11
250.6999997973
 21
177.2549985743
 31
0.0
  0
LINE
  5
310
330
1F
100
AcDbEntity
  8
0
  6
Continuous
 62
     7
370
    25
100
AcDbLine
 10
250.6999997973
 20
177.2549985743
 30
0.0
 11
250.3499998331
 21
177.2549985743
 31
0.0
  0
LINE
  5
311
330
1F
100
AcDbEntity
  8
0
  6
Continuous
 62
     7
370
    25
100
AcDbLine
 10
250.3499998331
 20
182.2549997663
 30
0.0
 11
250.3499998331
 21
177.2549985743
 31
0.0
  0
LINE
  5
312
330
1F
100
AcDbEntity
  8
0
  6
Continuous
 62
     7
370
    25
100
AcDbLine
 10
253.314795959
 20
182.5049995279
 30
0.0
 11
253.314795959
 21
272.4900006151
 31
0.0
  0
LINE
  5
313
330
1F
100
AcDbEntity
  8
0
  6
Continuous
 62
     7
370
    25
100
AcDbLine
 10
252.3249997377
 20
182.5049995279
 30
0.0
 11
252.3249997377
 21
272.4900006151
 31
0.0
  0
LINE
  5
314
330
1F
100
AcDbEntity
  8
0
  6
Continuous
 62
     7
370
    25
100
AcDbLine
 10
252.3249997377
 20
182.5049995279
 30
0.0
 11
253.314795959
 21
182.5049995279
 31
0.0
  0
LINE
  5
315
330
1F
100
AcDbEntity
  8
0
  6
Continuous
 62
     7
370
    25
100
AcDbLine
 10
252.3249997377
 20
272.4900006151
 30
0.0
 11
253.314795959
 21
272.4900006151
 31
0.0
  0
LINE
  5
316
330
1F
100
AcDbEntity
  8
0
  6
Continuous
 62
     7
370
    25
100
AcDbLine
 10
253.3247961283
 20
182.5049995279
 30
0.0
 11
253.3247961283
 21
272.4900006151
 31
0.0
  0
LINE
  5
317
330
1F
100
AcDbEntity
  8
0
  6
Continuous
 62
     7
370
    25
100
AcDbLine
 10
253.314795959
 20
182.5049995279
 30
0.0
 11
253.3247961283
 21
182.5049995279
 31
0.0
  0
LINE
  5
318
330
1F
100
AcDbEntity
  8
0
  6
Continuous
 62
     7
370
    25
100
AcDbLine
 10
253.314795959
 20
272.4900006151
 30
0.0
 11
253.3247961283
 21
272.4900006151
 31
0.0
  0
LINE
  5
319
330
1F
100
AcDbEntity
  8
0
  6
Continuous
 62
     7
370
    25
100
AcDbLine
 10
253.3313124061
 20
182.5049995279
 30
0.0
 11
253.3313124061
 21
272.4900006151
 31
0.0
  0
LINE
  5
31A
330
1F
100
AcDbEntity
  8
0
  6
Continuous
 62
     7
370
    25
100
AcDbLine
 10
253.3247961283
 20
182.5049995279
 30
0.0
 11
253.3313124061
 21
182.5049995279
 31
0.0
  0
LINE
  5
31B
330
1F
100
AcDbEntity
  8
0
  6
Continuous
 62
     7
370
    25
100
AcDbLine
 10
253.3247961283
 20
272.4900006151
 30
0.0
 11
253.3313124061
 21
272.4900006151
 31
0.0
  0
LINE
  5
31C
330
1F
100
AcDbEntity
  8
0
  6
Continuous
 62
     7
370
    25
100
AcDbLine
 10
253.3313124061
 20
182.5049995279
 30
0.0
 11
253.3413125753
 21
182.5049995279
 31
0.0
  0
LINE
  5
31D
330
1F
100
AcDbEntity
  8
0
  6
Continuous
 62
     7
370
    25
100
AcDbLine
 10
253.3313124061
 20
272.4900006151
 30
0.0
 11
253.3413125753
 21
272.4900006151
 31
0.0
  0
LINE
  5
31E
330
1F
100
AcDbEntity
  8
0
  6
Continuous
 62
     7
370
    25
100
AcDbLine
 10
252.2750003815
 20
182.5049995279
 30
0.0
 11
252.2750003815
 21
272.4900006151
 31
0.0
  0
LINE
  5
31F
330
1F
100
AcDbEntity
  8
0
  6
Continuous
 62
     7
370
    25
100
AcDbLine
 10
252.2750003815
 20
182.5049995279
 30
0.0
 11
252.3249997377
 21
182.5049995279
 31
0.0
  0
LINE
  5
320
330
1F
100
AcDbEntity
  8
0
  6
Continuous
 62
     7
370
    25
100
AcDbLine
 10
252.2750003815
 20
272.4900006151
 30
0.0
 11
252.3249997377
 21
272.4900006151
 31
0.0
  0
LINE
  5
321
330
1F
100
AcDbEntity
  8
0
  6
Continuous
 62
     7
370
    25
100
AcDbLine
 10
250.8
 20
182.5049995279
 30
0.0
 11
250.8
 21
272.4900006151
 31
0.0
  0
LINE
  5
322
330
1F
100
AcDbEntity
  8
0
  6
Continuous
 62
     7
370
    25
100
AcDbLine
 10
250.8
 20
182.5049995279
 30
0.0
 11
252.2750003815
 21
182.5049995279
 31
0.0
  0
LINE
  5
323
330
1F
100
AcDbEntity
  8
0
  6
Continuous
 62
     7
370
    25
100
AcDbLine
 10
250.8
 20
272.4900006151
 30
0.0
 11
252.2750003815
 21
272.4900006151
 31
0.0
  0
LINE
  5
324
330
1F
100
AcDbEntity
  8
0
  6
Continuous
 62
     7
370
    25
100
AcDbLine
 10
224.2999999404
 20
272.7400003767
 30
0.0
 11
252.3000000596
 21
272.7400003767
 31
0.0
  0
LINE
  5
325
330
1F
100
AcDbEntity
  8
0
  6
Continuous
 62
     7
370
    25
100
AcDbLine
 10
252.3000000596
 20
272.7400003767
 30
0.0
 11
252.3000000596
 21
272.4900006151
 31
0.0
  0
LINE
  5
326
330
1F
100
AcDbEntity
  8
0
  6
Continuous
 62
     7
370
    25
100
AcDbLine
 10
252.3000000596
 20
182.5049995279
 30
0.0
 11
252.3000000596
 21
182.2549997663
 31
0.0
  0
LINE
  5
327
330
1F
100
AcDbEntity
  8
0
  6
Continuous
 62
     7
370
    25
100
AcDbLine
 10
224.2999999404
 20
182.2549997663
 30
0.0
 11
252.3000000596
 21
182.2549997663
 31
0.0
  0
LINE
  5
328
330
1F
100
AcDbEntity
  8
0
  6
Continuous
 62
     7
370
    25
100
AcDbLine
 10
224.2999999404
 20
182.2549997663
 30
0.0
 11
224.2999999404
 21
272.7400003767
 31
0.0
  0
LINE
  5
329
330
1F
100
AcDbEntity
  8
0
  6
Continuous
 62
     7
370
    25
100
AcDbLine
 10
249.1549997211
 20
178.1049995518
 30
0.0
 11
250.2999997318
 21
178.1049995518
 31
0.0
  0
LINE
  5
32A
330
1F
100
AcDbEntity
  8
0
  6
Continuous
 62
     7
370
    25
100
AcDbLine
 10
248.4549997926
 20
177.4049996233
 30
0.0
 11
249.1549997211
 21
178.1049995518
 31
0.0
  0
LINE
  5
32B
330
1F
100
AcDbEntity
  8
0
  6
Continuous
 62
     7
370
    25
100
AcDbLine
 10
248.4549997926
 20
177.4049996233
 30
0.0
 11
232.7800000638
 21
177.4049996233
 31
0.0
  0
LINE
  5
32C
330
1F
100
AcDbEntity
  8
0
  6
Continuous
 62
     7
370
    25
100
AcDbLine
 10
232.7800000638
 20
177.695000062
 30
0.0
 11
232.7800000638
 21
177.4049996233
 31
0.0
  0
LINE
  5
32D
330
1F
100
AcDbEntity
  8
0
  6
Continuous
 62
     7
370
    25
100
AcDbLine
 10
227.7799999893
 20
182.2450010872
 30
0.0
 11
250.2999997318
 21
182.2450010872
 31
0.0
  0
LINE
  5
32E
330
1F
100
AcDbEntity
  8
0
  6
Continuous
 62
     7
370
    25
100
AcDbLine
 10
250.2999997318
 20
178.1049995518
 30
0.0
 11
250.2999997318
 21
182.2450010872
 31
0.0
  0
ARC
  5
32F
330
1F
100
AcDbEntity
  8
0
  6
Continuous
 62
     7
370
    25
100
AcDbCircle
 10
233.95
 20
180.895
 30
0.0
 40
0.2000000000000171
100
AcDbArc
 50
90.0
 51
270.0
  0
LINE
  5
330
330
1F
100
AcDbEntity
  8
0
  6
Continuous
 62
     7
370
    25
100
AcDbLine
 10
237.5500000168
 20
180.6950001812
 30
0.0
 11
233.9500001252
 21
180.6950001812
 31
0.0
  0
ARC
  5
331
330
1F
100
AcDbEntity
  8
0
  6
Continuous
 62
     7
370
    25
100
AcDbCircle
 10
237.55
 20
180.895
 30
0.0
 40
0.2000000000000171
100
AcDbArc
 50
270.0
 51
90.0
  0
LINE
  5
332
330
1F
100
AcDbEntity
  8
0
  6
Continuous
 62
     7
370
    25
100
AcDbLine
 10
233.9500001252
 20
181.0950009918
 30
0.0
 11
237.5500000168
 21
181.0950009918
 31
0.0
  0
ARC
  5
333
330
1F
100
AcDbEntity
  8
0
  6
Continuous
 62
     7
370
    25
100
AcDbCircle
 10
242.2
 20
179.895
 30
0.0
 40
0.2000000000000171
100
AcDbArc
 50
90.0
 51
270.0
  0
LINE
  5
334
330
1F
100
AcDbEntity
  8
0
  6
Continuous
 62
     7
370
    25
100
AcDbLine
 10
245.800000298
 20
179.6950011349
 30
0.0
 11
242.2000000805
 21
179.6950011349
 31
0.0
  0
ARC
  5
335
330
1F
100
AcDbEntity
  8
0
  6
Continuous
 62
     7
370
    25
100
AcDbCircle
 10
245.8
 20
179.895
 30
0.0
 40
0.2000000000000171
100
AcDbArc
 50
270.0
 51
90.0
  0
LINE
  5
336
330
1F
100
AcDbEntity
  8
0
  6
Continuous
 62
     7
370
    25
100
AcDbLine
 10
242.2000000805
 20
180.0949989653
 30
0.0
 11
245.800000298
 21
180.0949989653
 31
0.0
  0
ARC
  5
337
330
1F
100
AcDbEntity
  8
0
  6
Continuous
 62
     7
370
    25
100
AcDbCircle
 10
236.7
 20
179.895
 30
0.0
 40
0.2000000000000171
100
AcDbArc
 50
90.0
 51
270.0
  0
LINE
  5
338
330
1F
100
AcDbEntity
  8
0
  6
Continuous
 62
     7
370
    25
100
AcDbLine
 10
240.2999999553
 20
179.6950011349
 30
0.0
 11
236.699999924
 21
179.6950011349
 31
0.0
  0
ARC
  5
339
330
1F
100
AcDbEntity
  8
0
  6
Continuous
 62
     7
370
    25
100
AcDbCircle
 10
240.3
 20
179.895
 30
0.0
 40
0.2000000000000171
100
AcDbArc
 50
270.0
 51
90.0
  0
LINE
  5
33A
330
1F
100
AcDbEntity
  8
0
  6
Continuous
 62
     7
370
    25
100
AcDbLine
 10
236.699999924
 20
180.0949989653
 30
0.0
 11
240.2999999553
 21
180.0949989653
 31
0.0
  0
ARC
  5
33B
330
1F
100
AcDbEntity
  8
0
  6
Continuous
 62
     7
370
    25
100
AcDbCircle
 10
231.2
 20
179.895
 30
0.0
 40
0.2000000000000171
100
AcDbArc
 50
90.0
 51
270.0
  0
LINE
  5
33C
330
1F
100
AcDbEntity
  8
0
  6
Continuous
 62
     7
370
    25
100
AcDbLine
 10
234.7999999851
 20
179.6950011349
 30
0.0
 11
231.1999997675
 21
179.6950011349
 31
0.0
  0
ARC
  5
33D
330
1F
100
AcDbEntity
  8
0
  6
Continuous
 62
     7
370
    25
100
AcDbCircle
 10
234.8
 20
179.895
 30
0.0
 40
0.2000000000000171
100
AcDbArc
 50
270.0
 51
90.0
  0
LINE
  5
33E
330
1F
100
AcDbEntity
  8
0
  6
Continuous
 62
     7
370
    25
100
AcDbLine
 10
231.1999997675
 20
180.0949989653
 30
0.0
 11
234.7999999851
 21
180.0949989653
 31
0.0
  0
ARC
  5
33F
330
1F
100
AcDbEntity
  8
0
  6
Continuous
 62
     7
370
    25
100
AcDbCircle
 10
244.95
 20
180.895
 30
0.0
 40
0.2000000000000171
100
AcDbArc
 50
90.0
 51
270.0
  0
LINE
  5
340
330
1F
100
AcDbEntity
  8
0
  6
Continuous
 62
     7
370
    25
100
AcDbLine
 10
248.5499999106
 20
180.6950001812
 30
0.0
 11
244.9500000656
 21
180.6950001812
 31
0.0
  0
ARC
  5
341
330
1F
100
AcDbEntity
  8
0
  6
Continuous
 62
     7
370
    25
100
AcDbCircle
 10
248.55
 20
180.895
 30
0.0
 40
0.2000000000000171
100
AcDbArc
 50
270.0
 51
90.0
  0
LINE
  5
342
330
1F
100
AcDbEntity
  8
0
  6
Continuous
 62
     7
370
    25
100
AcDbLine
 10
244.9500000656
 20
181.0950009918
 30
0.0
 11
248.5499999106
 21
181.0950009918
 31
0.0
  0
ARC
  5
343
330
1F
100
AcDbEntity
  8
0
  6
Continuous
 62
     7
370
    25
100
AcDbCircle
 10
239.45
 20
180.895
 30
0.0
 40
0.2000000000000171
100
AcDbArc
 50
90.0
 51
270.0
  0
LINE
  5
344
330
1F
100
AcDbEntity
  8
0
  6
Continuous
 62
     7
370
    25
100
AcDbLine
 10
243.0499999404
 20
180.6950001812
 30
0.0
 11
239.4500000022
 21
180.6950001812
 31
0.0
  0
ARC
  5
345
330
1F
100
AcDbEntity
  8
0
  6
Continuous
 62
     7
370
    25
100
AcDbCircle
 10
243.05
 20
180.895
 30
0.0
 40
0.2000000000000171
100
AcDbArc
 50
270.0
 51
90.0
  0
LINE
  5
346
330
1F
100
AcDbEntity
  8
0
  6
Continuous
 62
     7
370
    25
100
AcDbLine
 10
239.4500000022
 20
181.0950009918
 30
0.0
 11
243.0499999404
 21
181.0950009918
 31
0.0
  0
LINE
  5
347
330
1F
100
AcDbEntity
  8
0
  6
Continuous
 62
     7
370
    25
100
AcDbLine
 10
227.7799999893
 20
182.2450010872
 30
0.0
 11
227.7799999893
 21
177.695000062
 31
0.0
  0
LINE
  5
348
330
1F
100
AcDbEntity
  8
0
  6
Continuous
 62
     7
370
    25
100
AcDbLine
 10
227.7799999893
 20
177.695000062
 30
0.0
 11
232.7800000638
 21
177.695000062
 31
0.0
  0
LINE
  5
349
330
1F
100
AcDbEntity
  8
0
  6
Continuous
 62
     7
370
    25
100
AcDbLine
 10
250.2999997318
 20
182.2450010872
 30
0.0
 11
250.2999997318
 21
182.2549997663
 31
0.0
  0
LINE
  5
34A
330
1F
100
AcDbEntity
  8
0
  6
Continuous
 62
     7
370
    25
100
AcDbLine
 10
227.7799999893
 20
182.2450010872
 30
0.0
 11
227.7799999893
 21
182.2549997663
 31
0.0
  0
LINE
  5
34B
330
1F
100
AcDbEntity
  8
0
  6
Continuous
 62
     7
370
    25
100
AcDbLine
 10
248.5784998715
 20
176.4899997807
 30
0.0
 11
250.3114997029
 21
176.4899997807
 31
0.0
  0
LINE
  5
34C
330
1F
100
AcDbEntity
  8
0
  6
Continuous
 62
     7
370
    25
100
AcDbLine
 10
248.8610854924
 20
177.0265011883
 30
0.0
 11
250.0289148271
 21
177.0265011883
 31
0.0
  0
ARC
  5
34D
330
1F
100
AcDbEntity
  8
0
  6
Continuous
 62
     7
370
    25
100
AcDbCircle
 10
231.325
 20
177.74
 30
0.0
 40
1.250000000000026
100
AcDbArc
 50
182.0630938545
 51
357.9369061455
  0
ARC
  5
34E
330
1F
100
AcDbEntity
  8
0
  6
Continuous
 62
     7
370
    25
100
AcDbCircle
 10
231.325
 20
177.74
 30
0.0
 40
0.8503812145668254
100
AcDbArc
 50
183.0333630072
 51
356.9666369928
  0
ARC
  5
34F
330
1F
100
AcDbEntity
  8
0
  6
Continuous
 62
     7
370
    25
100
AcDbCircle
 10
231.325
 20
177.74
 30
0.0
 40
0.375000000000021
100
AcDbArc
 50
186.8921025794
 51
353.1078974206
  0
LINE
  5
350
330
1F
100
AcDbEntity
  8
0
  6
Continuous
 62
     7
370
    25
100
AcDbLine
 10
249.0293076813
 20
177.1874992943
 30
0.0
 11
249.8606918931
 21
177.1874992943
 31
0.0
  0
LINE
  5
351
330
1F
100
AcDbEntity
  8
0
  6
Continuous
 62
     8
370
    25
100
AcDbLine
 10
248.503500092
 20
176.5650003052
 30
0.0
 11
250.3865002275
 21
176.5650003052
 31
0.0
  0
LINE
  5
352
330
1F
100
AcDbEntity
  8
0
  6
Continuous
 62
     8
370
    25
100
AcDbLine
 10
248.503500092
 20
176.6596405602
 30
0.0
 11
250.3865002275
 21
176.6596405602
 31
0.0
  0
LINE
  5
353
330
1F
100
AcDbEntity
  8
0
  6
Continuous
 62
     8
370
    25
100
AcDbLine
 10
248.5246180177
 20
176.7118095255
 30
0.0
 11
250.3653823018
 21
176.7118095255
 31
0.0
  0
LINE
  5
354
330
1F
100
AcDbEntity
  8
0
  6
Continuous
 62
     8
370
    25
100
AcDbLine
 10
248.8072036386
 20
177.0036696291
 30
0.0
 11
250.0827966809
 21
177.0036696291
 31
0.0
  0
ENDSEC
  0
SECTION
  2
OBJECTS
  0
DICTIONARY
  5
C
330
0
100
AcDbDictionary
281
     1
  3
ACAD_GROUP
350
D
  3
ACAD_LAYOUT
350
1A
  3
ACAD_MLINESTYLE
350
17
  3
ACAD_PLOTSETTINGS
350
19
  3
ACAD_PLOTSTYLENAME
350
E
  3
ACAD_SCALELIST
350
47
  0
DICTIONARY
  5
D
102
{ACAD_REACTORS
330
C
102
}
330
C
100
AcDbDictionary
281
     1
  0
DICTIONARY
  5
1A
102
{ACAD_REACTORS
330
C
102
}
330
C
100
AcDbDictionary
281
     1
  3
Layout1
350
1E
  3
Layout2
350
26
  3
Model
350
22
  0
DICTIONARY
  5
17
102
{ACAD_REACTORS
330
C
102
}
330
C
100
AcDbDictionary
281
     1
  3
Standard
350
18
  0
DICTIONARY
  5
19
102
{ACAD_REACTORS
330
C
102
}
330
C
100
AcDbDictionary
281
     1
  0
ACDBDICTIONARYWDFLT
  5
E
102
{ACAD_REACTORS
330
C
102
}
330
C
100
AcDbDictionary
281
     1
  3
Normal
350
F
100
AcDbDictionaryWithDefault
340
F
  0
DICTIONARY
  5
47
102
{ACAD_REACTORS
330
C
102
}
330
C
100
AcDbDictionary
281
     1
  3
A0
350
48
  3
A1
350
49
  3
A2
350
4A
  3
A3
350
4B
  3
A4
350
4C
  3
A5
350
4D
  3
A6
350
4E
  3
A7
350
4F
  3
A8
350
50
  3
A9
350
51
  3
B0
350
52
  3
B1
350
53
  3
B2
350
54
  3
B3
350
55
  3
B4
350
56
  3
B5
350
57
  3
B6
350
58
  3
B7
350
59
  3
B8
350
5A
  3
B9
350
5B
  3
C0
350
5C
  3
C1
350
5D
  3
C2
350
5E
  3
C3
350
5F
  3
C4
350
60
  3
C5
350
61
  3
C6
350
62
  3
C7
350
63
  3
C8
350
64
  3
C9
350
65
  3
D0
350
66
  3
D1
350
67
  3
D2
350
68
  0
LAYOUT
  5
1E
102
{ACAD_REACTORS
330
1A
102
}
330
1A
100
AcDbPlotSettings
  1

  2
none_device
  4

  6

 40
0.0
 41
0.0
 42
0.0
 43
0.0
 44
0.0
 45
0.0
 46
0.0
 47
0.0
 48
0.0
 49
0.0
140
0.0
141
0.0
142
1.0
143
1.0
 70
   688
 72
     1
 73
     0
 74
     5
  7

 75
    16
147
1.0
148
0.0
149
0.0
100
AcDbLayout
  1
Layout1
 70
     1
 71
     1
 10
0.0
 20
0.0
 11
420.0
 21
297.0
 12
0.0
 22
0.0
 32
0.0
 14
1.0000000000E+20
 24
1.0000000000E+20
 34
1.0000000000E+20
 15
-1.0000000000E+20
 25
-1.0000000000E+20
 35
-1.0000000000E+20
146
0.0
 13
0.0
 23
0.0
 33
0.0
 16
1.0
 26
0.0
 36
0.0
 17
0.0
 27
1.0
 37
0.0
 76
     0
330
1B
  0
LAYOUT
  5
26
102
{ACAD_REACTORS
330
1A
102
}
330
1A
100
AcDbPlotSettings
  1

  2
none_device
  4

  6

 40
0.0
 41
0.0
 42
0.0
 43
0.0
 44
0.0
 45
0.0
 46
0.0
 47
0.0
 48
0.0
 49
0.0
140
0.0
141
0.0
142
1.0
143
1.0
 70
   688
 72
     1
 73
     0
 74
     5
  7

 75
    16
147
1.0
148
0.0
149
0.0
100
AcDbLayout
  1
Layout2
 70
     1
 71
     2
 10
0.0
 20
0.0
 11
0.0
 21
0.0
 12
0.0
 22
0.0
 32
0.0
 14
0.0
 24
0.0
 34
0.0
 15
0.0
 25
0.0
 35
0.0
146
0.0
 13
0.0
 23
0.0
 33
0.0
 16
1.0
 26
0.0
 36
0.0
 17
0.0
 27
1.0
 37
0.0
 76
     0
330
23
  0
LAYOUT
  5
22
102
{ACAD_REACTORS
330
1A
102
}
330
1A
100
AcDbPlotSettings
  1

  2
none_device
  4
Letter_(8.50_x_11.00_Inches)
  6

 40
6.35
 41
6.35
 42
6.35000508
 43
6.35000508
 44
215.9
 45
279.4
 46
0.0
 47
0.0
 48
0.0
 49
0.0
140
0.0
141
0.0
142
1.0
143
1.0
 70
  1712
 72
     1
 73
     0
 74
     0
  7

 75
     0
147
1.0
148
0.0
149
0.0
100
AcDbLayout
  1
Model
 70
     1
 71
     0
 10
0.0
 20
0.0
 11
420.0
 21
297.0
 12
0.0
 22
0.0
 32
0.0
 14
0.0
 24
0.0
 34
0.0
 15
420.0
 25
297.0
 35
0.0
146
0.0
 13
0.0
 23
0.0
 33
0.0
 16
1.0
 26
0.0
 36
0.0
 17
0.0
 27
1.0
 37
0.0
 76
     0
330
1F
331
29
  0
MLINESTYLE
  5
18
102
{ACAD_REACTORS
330
17
102
}
330
17
100
AcDbMlineStyle
  2
Standard
 70
     0
  3

 62
   256
 51
90.0
 52
90.0
 71
     2
 49
0.5
 62
   256
  6
BYLAYER
 49
-0.5
 62
   256
  6
BYLAYER
  0
ACDBPLACEHOLDER
  5
F
102
{ACAD_REACTORS
330
E
102
}
330
E
  0
SCALE
  5
48
102
{ACAD_REACTORS
330
47
102
}
330
47
100
AcDbScale
 70
     0
300
1:1
140
1.0
141
1.0
290
     1
  0
SCALE
  5
49
102
{ACAD_REACTORS
330
47
102
}
330
47
100
AcDbScale
 70
     0
300
1:2
140
1.0
141
2.0
290
     0
  0
SCALE
  5
4A
102
{ACAD_REACTORS
330
47
102
}
330
47
100
AcDbScale
 70
     0
300
1:4
140
1.0
141
4.0
290
     0
  0
SCALE
  5
4B
102
{ACAD_REACTORS
330
47
102
}
330
47
100
AcDbScale
 70
     0
300
1:5
140
1.0
141
5.0
290
     0
  0
SCALE
  5
4C
102
{ACAD_REACTORS
330
47
102
}
330
47
100
AcDbScale
 70
     0
300
1:8
140
1.0
141
8.0
290
     0
  0
SCALE
  5
4D
102
{ACAD_REACTORS
330
47
102
}
330
47
100
AcDbScale
 70
     0
300
1:10
140
1.0
141
10.0
290
     0
  0
SCALE
  5
4E
102
{ACAD_REACTORS
330
47
102
}
330
47
100
AcDbScale
 70
     0
300
1:16
140
1.0
141
16.0
290
     0
  0
SCALE
  5
4F
102
{ACAD_REACTORS
330
47
102
}
330
47
100
AcDbScale
 70
     0
300
1:20
140
1.0
141
20.0
290
     0
  0
SCALE
  5
50
102
{ACAD_REACTORS
330
47
102
}
330
47
100
AcDbScale
 70
     0
300
1:30
140
1.0
141
30.0
290
     0
  0
SCALE
  5
51
102
{ACAD_REACTORS
330
47
102
}
330
47
100
AcDbScale
 70
     0
300
1:40
140
1.0
141
40.0
290
     0
  0
SCALE
  5
52
102
{ACAD_REACTORS
330
47
102
}
330
47
100
AcDbScale
 70
     0
300
1:50
140
1.0
141
50.0
290
     0
  0
SCALE
  5
53
102
{ACAD_REACTORS
330
47
102
}
330
47
100
AcDbScale
 70
     0
300
1:100
140
1.0
141
100.0
290
     0
  0
SCALE
  5
54
102
{ACAD_REACTORS
330
47
102
}
330
47
100
AcDbScale
 70
     0
300
2:1
140
2.0
141
1.0
290
     0
  0
SCALE
  5
55
102
{ACAD_REACTORS
330
47
102
}
330
47
100
AcDbScale
 70
     0
300
4:1
140
4.0
141
1.0
290
     0
  0
SCALE
  5
56
102
{ACAD_REACTORS
330
47
102
}
330
47
100
AcDbScale
 70
     0
300
8:1
140
8.0
141
1.0
290
     0
  0
SCALE
  5
57
102
{ACAD_REACTORS
330
47
102
}
330
47
100
AcDbScale
 70
     0
300
10:1
140
10.0
141
1.0
290
     0
  0
SCALE
  5
58
102
{ACAD_REACTORS
330
47
102
}
330
47
100
AcDbScale
 70
     0
300
100:1
140
100.0
141
1.0
290
     0
  0
SCALE
  5
59
102
{ACAD_REACTORS
330
47
102
}
330
47
100
AcDbScale
 70
     0
300
1/128" = 1'-0"
140
0.0078125
141
12.0
290
     0
  0
SCALE
  5
5A
102
{ACAD_REACTORS
330
47
102
}
330
47
100
AcDbScale
 70
     0
300
1/64" = 1'-0"
140
0.015625
141
12.0
290
     0
  0
SCALE
  5
5B
102
{ACAD_REACTORS
330
47
102
}
330
47
100
AcDbScale
 70
     0
300
1/32" = 1'-0"
140
0.03125
141
12.0
290
     0
  0
SCALE
  5
5C
102
{ACAD_REACTORS
330
47
102
}
330
47
100
AcDbScale
 70
     0
300
1/16" = 1'-0"
140
0.0625
141
12.0
290
     0
  0
SCALE
  5
5D
102
{ACAD_REACTORS
330
47
102
}
330
47
100
AcDbScale
 70
     0
300
3/32" = 1'-0"
140
0.09375
141
12.0
290
     0
  0
SCALE
  5
5E
102
{ACAD_REACTORS
330
47
102
}
330
47
100
AcDbScale
 70
     0
300
1/8" = 1'-0"
140
0.125
141
12.0
290
     0
  0
SCALE
  5
5F
102
{ACAD_REACTORS
330
47
102
}
330
47
100
AcDbScale
 70
     0
300
3/16" = 1'-0"
140
0.1875
141
12.0
290
     0
  0
SCALE
  5
60
102
{ACAD_REACTORS
330
47
102
}
330
47
100
AcDbScale
 70
     0
300
1/4" = 1'-0"
140
0.25
141
12.0
290
     0
  0
SCALE
  5
61
102
{ACAD_REACTORS
330
47
102
}
330
47
100
AcDbScale
 70
     0
300
3/8" = 1'-0"
140
0.375
141
12.0
290
     0
  0
SCALE
  5
62
102
{ACAD_REACTORS
330
47
102
}
330
47
100
AcDbScale
 70
     0
300
1/2" = 1'-0"
140
0.5
141
12.0
290
     0
  0
SCALE
  5
63
102
{ACAD_REACTORS
330
47
102
}
330
47
100
AcDbScale
 70
     0
300
3/4" = 1'-0"
140
0.75
141
12.0
290
     0
  0
SCALE
  5
64
102
{ACAD_REACTORS
330
47
102
}
330
47
100
AcDbScale
 70
     0
300
1" = 1'-0"
140
1.0
141
12.0
290
     0
  0
SCALE
  5
65
102
{ACAD_REACTORS
330
47
102
}
330
47
100
AcDbScale
 70
     0
300
1-1/2" = 1'-0"
140
1.5
141
12.0
290
     0
  0
SCALE
  5
66
102
{ACAD_REACTORS
330
47
102
}
330
47
100
AcDbScale
 70
     0
300
3" = 1'-0"
140
3.0
141
12.0
290
     0
  0
SCALE
  5
67
102
{ACAD_REACTORS
330
47
102
}
330
47
100
AcDbScale
 70
     0
300
6" = 1'-0"
140
6.0
141
12.0
290
     0
  0
SCALE
  5
68
102
{ACAD_REACTORS
330
47
102
}
330
47
100
AcDbScale
 70
     0
300
1'-0" = 1'-0"
140
12.0
141
12.0
290
     0
  0
ENDSEC
  0
EOF
