  0
SECTION
  2
HEADER
  9
$ACADVER
  1
AC1015
  9
$ACADMAINTVER
 70
     6
  9
$DWGCODEPAGE
  3
ANSI_1252
  9
$INSBASE
 10
0.0
 20
0.0
 30
0.0
  9
$EXTMIN
 10
0.0
 20
0.0
 30
0.0
  9
$EXTMAX
 10
420.0
 20
297.0
 30
0.0
  9
$LIMMIN
 10
0.0
 20
0.0
  9
$LIMMAX
 10
420.0
 20
297.0
  9
$ORTHOMODE
 70
     0
  9
$REGENMODE
 70
     1
  9
$FILLMODE
 70
     1
  9
$QTEXTMODE
 70
     0
  9
$MIRRTEXT
 70
     1
  9
$LTSCALE
 40
1.0
  9
$ATTMODE
 70
     1
  9
$TEXTSIZE
 40
3.5
  9
$TRACEWID
 40
1.0
  9
$TEXTSTYLE
  7
Standard
  9
$CLAYER
  8
0
  9
$CELTYPE
  6
ByLayer
  9
$CECOLOR
 62
   256
  9
$CELTSCALE
 40
1.0
  9
$DISPSILH
 70
     0
  9
$DIMSCALE
 40
1.0
  9
$DIMASZ
 40
3.0
  9
$DIMEXO
 40
1.0
  9
$DIMDLI
 40
3.75
  9
$DIMRND
 40
0.0
  9
$DIMDLE
 40
0.0
  9
$DIMEXE
 40
1.0
  9
$DIMTP
 40
0.0
  9
$DIMTM
 40
0.0
  9
$DIMTXT
 40
3.5
  9
$DIMCEN
 40
2.5
  9
$DIMTSZ
 40
0.0
  9
$DIMTOL
 70
     0
  9
$DIMLIM
 70
     0
  9
$DIMTIH
 70
     1
  9
$DIMTOH
 70
     1
  9
$DIMSE1
 70
     0
  9
$DIMSE2
 70
     0
  9
$DIMTAD
 70
     1
  9
$DIMZIN
 70
     0
  9
$DIMBLK
  1

  9
$DIMASO
 70
     1
  9
$DIMSHO
 70
     1
  9
$DIMPOST
  1

  9
$DIMAPOST
  1

  9
$DIMALT
 70
     0
  9
$DIMALTD
 70
     3
  9
$DIMALTF
 40
0.0393700787
  9
$DIMLFAC
 40
20.0
  9
$DIMTOFL
 70
     1
  9
$DIMTVP
 40
0.0
  9
$DIMTIX
 70
     0
  9
$DIMSOXD
 70
     0
  9
$DIMSAH
 70
     0
  9
$DIMBLK1
  1

  9
$DIMBLK2
  1

  9
$DIMSTYLE
  2
ISO-25
  9
$DIMCLRD
 70
     0
  9
$DIMCLRE
 70
     0
  9
$DIMCLRT
 70
     0
  9
$DIMTFAC
 40
1.0
  9
$DIMGAP
 40
1.524
  9
$DIMJUST
 70
     0
  9
$DIMSD1
 70
     0
  9
$DIMSD2
 70
     0
  9
$DIMTOLJ
 70
     0
  9
$DIMTZIN
 70
     0
  9
$DIMALTZ
 70
     0
  9
$DIMALTTZ
 70
     0
  9
$DIMUPT
 70
     0
  9
$DIMDEC
 70
     1
  9
$DIMTDEC
 70
     1
  9
$DIMALTU
 70
     2
  9
$DIMALTTD
 70
     3
  9
$DIMTXSTY
  7
Standard
  9
$DIMAUNIT
 70
     0
  9
$DIMADEC
 70
     1
  9
$DIMALTRND
 40
0.0
  9
$DIMAZIN
 70
     0
  9
$DIMDSEP
 70
    44
  9
$DIMATFIT
 70
     3
  9
$DIMFRAC
 70
     0
  9
$DIMLDRBLK
  1

  9
$DIMLUNIT
 70
     2
  9
$DIMLWD
 70
    -2
  9
$DIMLWE
 70
    -2
  9
$DIMTMOVE
 70
     0
  9
$LUNITS
 70
     2
  9
$LUPREC
 70
     1
  9
$SKETCHINC
 40
1.0
  9
$FILLETRAD
 40
10.0
  9
$AUNITS
 70
     0
  9
$AUPREC
 70
     1
  9
$MENU
  1
.
  9
$ELEVATION
 40
0.0
  9
$PELEVATION
 40
0.0
  9
$THICKNESS
 40
0.0
  9
$LIMCHECK
 70
     0
  9
$CHAMFERA
 40
0.0
  9
$CHAMFERB
 40
0.0
  9
$CHAMFERC
 40
0.0
  9
$CHAMFERD
 40
0.0
  9
$SKPOLY
 70
     0
  9
$TDCREATE
 40
2459516.355132002
  9
$TDUCREATE
 40
2459516.271798669
  9
$TDUPDATE
 40
2459516.355132465
  9
$TDUUPDATE
 40
2459516.271799132
  9
$TDINDWG
 40
0.0000000116
  9
$TDUSRTIMER
 40
0.0000000116
  9
$USRTIMER
 70
     1
  9
$ANGBASE
 50
0.0
  9
$ANGDIR
 70
     0
  9
$PDMODE
 70
     0
  9
$PDSIZE
 40
-1.0
  9
$PLINEWID
 40
0.0
  9
$SPLFRAME
 70
     0
  9
$SPLINETYPE
 70
     6
  9
$SPLINESEGS
 70
     8
  9
$HANDSEED
  5
359
  9
$SURFTAB1
 70
     6
  9
$SURFTAB2
 70
     6
  9
$SURFTYPE
 70
     6
  9
$SURFU
 70
     6
  9
$SURFV
 70
     6
  9
$UCSBASE
  2

  9
$UCSNAME
  2

  9
$UCSORG
 10
0.0
 20
0.0
 30
0.0
  9
$UCSXDIR
 10
1.0
 20
0.0
 30
0.0
  9
$UCSYDIR
 10
0.0
 20
1.0
 30
0.0
  9
$UCSORTHOREF
  2

  9
$UCSORTHOVIEW
 70
     0
  9
$UCSORGTOP
 10
0.0
 20
0.0
 30
0.0
  9
$UCSORGBOTTOM
 10
0.0
 20
0.0
 30
0.0
  9
$UCSORGLEFT
 10
0.0
 20
0.0
 30
0.0
  9
$UCSORGRIGHT
 10
0.0
 20
0.0
 30
0.0
  9
$UCSORGFRONT
 10
0.0
 20
0.0
 30
0.0
  9
$UCSORGBACK
 10
0.0
 20
0.0
 30
0.0
  9
$PUCSBASE
  2

  9
$PUCSNAME
  2

  9
$PUCSORG
 10
0.0
 20
0.0
 30
0.0
  9
$PUCSXDIR
 10
1.0
 20
0.0
 30
0.0
  9
$PUCSYDIR
 10
0.0
 20
1.0
 30
0.0
  9
$PUCSORTHOREF
  2

  9
$PUCSORTHOVIEW
 70
     0
  9
$PUCSORGTOP
 10
0.0
 20
0.0
 30
0.0
  9
$PUCSORGBOTTOM
 10
0.0
 20
0.0
 30
0.0
  9
$PUCSORGLEFT
 10
0.0
 20
0.0
 30
0.0
  9
$PUCSORGRIGHT
 10
0.0
 20
0.0
 30
0.0
  9
$PUCSORGFRONT
 10
0.0
 20
0.0
 30
0.0
  9
$PUCSORGBACK
 10
0.0
 20
0.0
 30
0.0
  9
$USERI1
 70
     0
  9
$USERI2
 70
     0
  9
$USERI3
 70
     0
  9
$USERI4
 70
     0
  9
$USERI5
 70
     0
  9
$USERR1
 40
0.0
  9
$USERR2
 40
0.0
  9
$USERR3
 40
0.0
  9
$USERR4
 40
0.0
  9
$USERR5
 40
0.0
  9
$WORLDVIEW
 70
     1
  9
$SHADEDGE
 70
     3
  9
$SHADEDIF
 70
    70
  9
$TILEMODE
 70
     1
  9
$MAXACTVP
 70
    64
  9
$PINSBASE
 10
0.0
 20
0.0
 30
0.0
  9
$PLIMCHECK
 70
     0
  9
$PEXTMIN
 10
1.0000000000E+20
 20
1.0000000000E+20
 30
1.0000000000E+20
  9
$PEXTMAX
 10
-1.0000000000E+20
 20
-1.0000000000E+20
 30
-1.0000000000E+20
  9
$PLIMMIN
 10
0.0
 20
0.0
  9
$PLIMMAX
 10
420.0
 20
297.0
  9
$UNITMODE
 70
     0
  9
$VISRETAIN
 70
     1
  9
$PLINEGEN
 70
     0
  9
$PSLTSCALE
 70
     1
  9
$TREEDEPTH
 70
  3020
  9
$CMLSTYLE
  2
Standard
  9
$CMLJUST
 70
     0
  9
$CMLSCALE
 40
20.0
  9
$PROXYGRAPHICS
 70
     1
  9
$MEASUREMENT
 70
     1
  9
$CELWEIGHT
370
    -1
  9
$ENDCAPS
280
     0
  9
$JOINSTYLE
280
     0
  9
$LWDISPLAY
290
     1
  9
$INSUNITS
 70
     4
  9
$HYPERLINKBASE
  1

  9
$STYLESHEET
  1

  9
$XEDIT
290
     1
  9
$CEPSNTYPE
380
     0
  9
$PSTYLEMODE
290
     1
  9
$FINGERPRINTGUID
  2
{63C491FC-DDC6-4103-8A34-C473CCCD2CE4}
  9
$VERSIONGUID
  2
{FAEB1C32-E019-11D5-929B-00C0DF256EC4}
  9
$EXTNAMES
290
     1
  9
$PSVPSCALE
 40
0.0
  9
$OLESTARTUP
290
     0
  0
ENDSEC
  0
SECTION
  2
CLASSES
  0
CLASS
  1
ACDBDICTIONARYWDFLT
  2
AcDbDictionaryWithDefault
  3
ObjectDBX Classes
 90
        0
280
     0
281
     0
  0
CLASS
  1
VISUALSTYLE
  2
AcDbVisualStyle
  3
ObjectDBX Classes
 90
     4095
280
     0
281
     0
  0
CLASS
  1
MATERIAL
  2
AcDbMaterial
  3
ObjectDBX Classes
 90
     1153
280
     0
281
     0
  0
CLASS
  1
SCALE
  2
AcDbScale
  3
ObjectDBX Classes
 90
     1153
280
     0
281
     0
  0
CLASS
  1
TABLESTYLE
  2
AcDbTableStyle
  3
ObjectDBX Classes
 90
     4095
280
     0
281
     0
  0
CLASS
  1
MLEADERSTYLE
  2
AcDbMLeaderStyle
  3
ACDB_MLEADERSTYLE_CLASS
 90
     4095
280
     0
281
     0
  0
CLASS
  1
SUN
  2
AcDbSun
  3
SCENEOE
 90
     1153
280
     0
281
     0
  0
CLASS
  1
ACDBPLACEHOLDER
  2
AcDbPlaceHolder
  3
ObjectDBX Classes
 90
        0
280
     0
281
     0
  0
CLASS
  1
LAYOUT
  2
AcDbLayout
  3
ObjectDBX Classes
 90
        0
280
     0
281
     0
  0
ENDSEC
  0
SECTION
  2
TABLES
  0
TABLE
  2
VPORT
  5
8
330
0
100
AcDbSymbolTable
 70
     1
  0
VPORT
  5
29
330
8
100
AcDbSymbolTableRecord
100
AcDbViewportTableRecord
  2
*Active
 70
     0
 10
0.0
 20
0.0
 11
1.0
 21
1.0
 12
210.0
 22
148.5
 13
0.0
 23
0.0
 14
10.0
 24
10.0
 15
10.0
 25
10.0
 16
0.0
 26
0.0
 36
1.0
 17
0.0
 27
0.0
 37
0.0
 40
297.0
 41
1.4141414141
 42
50.0
 43
0.0
 44
0.0
 50
0.0
 51
0.0
 71
     0
 72
  2000
 73
     1
 74
     3
 75
     0
 76
     0
 77
     0
 78
     0
281
     0
 65
     1
110
0.0
120
0.0
130
0.0
111
1.0
121
0.0
131
0.0
112
0.0
122
1.0
132
0.0
 79
     0
146
0.0
  0
ENDTAB
  0
TABLE
  2
LTYPE
  5
5
330
0
100
AcDbSymbolTable
 70
     6
  0
LTYPE
  5
14
330
5
100
AcDbSymbolTableRecord
100
AcDbLinetypeTableRecord
  2
ByBlock
 70
     0
  3

 72
    65
 73
     0
 40
0.0
  0
LTYPE
  5
15
330
5
100
AcDbSymbolTableRecord
100
AcDbLinetypeTableRecord
  2
ByLayer
 70
     0
  3

 72
    65
 73
     0
 40
0.0
  0
LTYPE
  5
16
330
5
100
AcDbSymbolTableRecord
100
AcDbLinetypeTableRecord
  2
Continuous
 70
     0
  3
Solid line
 72
    65
 73
     0
 40
0.0
  0
LTYPE
  5
6E
330
5
100
AcDbSymbolTableRecord
100
AcDbLinetypeTableRecord
  2
HIDDEN
 70
     0
  3
Hidden __ __ __ __ __ __ __ __ __ __ __ __ __ __
 72
    65
 73
     2
 40
1.905
 49
1.27
 74
     0
 49
-0.635
 74
     0
  0
LTYPE
  5
6F
330
5
100
AcDbSymbolTableRecord
100
AcDbLinetypeTableRecord
  2
PHANTOM
 70
     0
  3
Phantom ______  __  __  ______  __  __  ______
 72
    65
 73
     6
 40
12.7
 49
6.35
 74
     0
 49
-1.27
 74
     0
 49
1.27
 74
     0
 49
-1.27
 74
     0
 49
1.27
 74
     0
 49
-1.27
 74
     0
  0
LTYPE
  5
70
330
5
100
AcDbSymbolTableRecord
100
AcDbLinetypeTableRecord
  2
CENTER
 70
     0
  3
Center ____ _ ____ _ ____ _ ____ _ ____ _ ____
 72
    65
 73
     4
 40
10.16
 49
6.35
 74
     0
 49
-1.27
 74
     0
 49
1.27
 74
     0
 49
-1.27
 74
     0
  0
LTYPE
  5
71
330
5
100
AcDbSymbolTableRecord
100
AcDbLinetypeTableRecord
  2
CENTERX2
 70
     0
  3
Center (2x) ________  __  ________  __  _____
 72
    65
 73
     4
 40
20.32
 49
12.7
 74
     0
 49
-2.54
 74
     0
 49
2.54
 74
     0
 49
-2.54
 74
     0
  0
LTYPE
  5
72
330
5
100
AcDbSymbolTableRecord
100
AcDbLinetypeTableRecord
  2
DOT2
 70
     0
  3
Dot (.5x) ........................................
 72
    65
 73
     2
 40
0.635
 49
0.0
 74
     0
 49
-0.635
 74
     0
  0
ENDTAB
  0
TABLE
  2
LAYER
  5
2
330
0
100
AcDbSymbolTable
 70
     6
  0
LAYER
  5
10
330
2
100
AcDbSymbolTableRecord
100
AcDbLayerTableRecord
  2
0
 70
     0
 62
     7
  6
Continuous
370
    -3
390
F
  0
LAYER
  5
73
330
2
100
AcDbSymbolTableRecord
100
AcDbLayerTableRecord
  2
SLD-0
 70
     0
 62
   179
  6
Continuous
370
    -3
390
F
  0
LAYER
  5
74
330
2
100
AcDbSymbolTableRecord
100
AcDbLayerTableRecord
  2
50DISEGNO
 70
     0
 62
     1
  6
Continuous
370
    -3
390
F
  0
LAYER
  5
75
330
2
100
AcDbSymbolTableRecord
100
AcDbLayerTableRecord
  2
SLD-DEFPOINTS
 70
     0
 62
    35
  6
Continuous
370
    -3
390
F
  0
LAYER
  5
76
330
2
100
AcDbSymbolTableRecord
100
AcDbLayerTableRecord
  2
250_CARTIGLIO
 70
     0
 62
   230
  6
Continuous
370
    -3
390
F
  0
LAYER
  5
77
330
2
100
AcDbSymbolTableRecord
100
AcDbLayerTableRecord
  2
80_QUOTE
 70
     0
 62
   179
  6
Continuous
370
    -3
390
F
  0
ENDTAB
  0
TABLE
  2
STYLE
  5
3
330
0
100
AcDbSymbolTable
 70
     1
  0
STYLE
  5
11
330
3
100
AcDbSymbolTableRecord
100
AcDbTextStyleTableRecord
  2
Standard
 70
     0
 40
0.0
 41
1.0
 50
0.0
 71
     0
 42
3.5
  3
txt
  4

  0
ENDTAB
  0
TABLE
  2
VIEW
  5
6
330
0
100
AcDbSymbolTable
 70
     0
  0
ENDTAB
  0
TABLE
  2
UCS
  5
7
330
0
100
AcDbSymbolTable
 70
     0
  0
ENDTAB
  0
TABLE
  2
APPID
  5
9
330
0
100
AcDbSymbolTable
 70
     1
  0
APPID
  5
12
330
9
100
AcDbSymbolTableRecord
100
AcDbRegAppTableRecord
  2
ACAD
 70
     0
  0
ENDTAB
  0
TABLE
  2
DIMSTYLE
  5
A
330
0
100
AcDbSymbolTable
 70
     1
100
AcDbDimStyleTable
  0
DIMSTYLE
105
27
330
A
100
AcDbSymbolTableRecord
100
AcDbDimStyleTableRecord
  2
ISO-25
 70
     0
 41
2.5
 42
0.625
 43
3.75
 44
1.25
 73
     0
 74
     0
 77
     1
 78
     8
140
2.5
141
2.5
143
0.0393700787
147
0.625
171
     3
172
     1
178
     0
271
     2
272
     2
274
     3
278
    44
283
     0
284
     8
340
11
  0
ENDTAB
  0
TABLE
  2
BLOCK_RECORD
  5
1
330
0
100
AcDbSymbolTable
 70
     1
  0
BLOCK_RECORD
  5
1F
330
1
100
AcDbSymbolTableRecord
100
AcDbBlockTableRecord
  2
*Model_Space
340
22
  0
BLOCK_RECORD
  5
1B
330
1
100
AcDbSymbolTableRecord
100
AcDbBlockTableRecord
  2
*Paper_Space
340
1E
  0
BLOCK_RECORD
  5
23
330
1
100
AcDbSymbolTableRecord
100
AcDbBlockTableRecord
  2
*Paper_Space0
340
26
  0
ENDTAB
  0
ENDSEC
  0
SECTION
  2
BLOCKS
  0
BLOCK
  5
20
330
1F
100
AcDbEntity
  8
0
100
AcDbBlockBegin
  2
*Model_Space
 70
     0
 10
0.0
 20
0.0
 30
0.0
  3
*Model_Space
  1

  0
ENDBLK
  5
21
330
1F
100
AcDbEntity
  8
0
100
AcDbBlockEnd
  0
BLOCK
  5
1C
330
1B
100
AcDbEntity
 67
     1
  8
0
100
AcDbBlockBegin
  2
*Paper_Space
 70
     0
 10
0.0
 20
0.0
 30
0.0
  3
*Paper_Space
  1

  0
ENDBLK
  5
1D
330
1B
100
AcDbEntity
 67
     1
  8
0
100
AcDbBlockEnd
  0
BLOCK
  5
24
330
23
100
AcDbEntity
  8
0
100
AcDbBlockBegin
  2
*Paper_Space0
 70
     0
 10
0.0
 20
0.0
 30
0.0
  3
*Paper_Space0
  1

  0
ENDBLK
  5
25
330
23
100
AcDbEntity
  8
0
100
AcDbBlockEnd
  0
ENDSEC
  0
SECTION
  2
ENTITIES
  0
LINE
  5
78
330
1F
100
AcDbEntity
  8
0
  6
Continuous
 62
     7
370
    25
100
AcDbLine
 10
361.121043194
 20
136.7656907824
 30
0.0
 11
361.121043194
 21
96.1019586814
 31
0.0
  0
LINE
  5
79
330
1F
100
AcDbEntity
  8
0
  6
Continuous
 62
     7
370
    25
100
AcDbLine
 10
362.6210432105
 20
134.9943549122
 30
0.0
 11
362.6210432105
 21
136.7656907824
 31
0.0
  0
LINE
  5
7A
330
1F
100
AcDbEntity
  8
0
  6
Continuous
 62
     7
370
    25
100
AcDbLine
 10
362.6210432105
 20
98.4105056142
 30
0.0
 11
362.6210432105
 21
134.457144458
 31
0.0
  0
LINE
  5
7B
330
1F
100
AcDbEntity
  8
0
  6
Continuous
 62
     7
370
    25
100
AcDbLine
 10
362.6210432105
 20
96.1019586814
 30
0.0
 11
362.6210432105
 21
97.8732939433
 31
0.0
  0
LINE
  5
7C
330
1F
100
AcDbEntity
  8
0
  6
Continuous
 62
     7
370
    25
100
AcDbLine
 10
363.1142034849
 20
136.1636669088
 30
0.0
 11
362.6210432105
 21
135.8789715422
 31
0.0
  0
LINE
  5
7D
330
1F
100
AcDbEntity
  8
0
  6
Continuous
 62
     7
370
    25
100
AcDbLine
 10
362.6210432105
 20
134.4356353508
 30
0.0
 11
363.7391527399
 21
135.081106243
 31
0.0
  0
LINE
  5
7E
330
1F
100
AcDbEntity
  8
0
  6
Continuous
 62
     7
370
    25
100
AcDbLine
 10
363.1142034849
 20
99.5826392322
 30
0.0
 11
362.6210432105
 21
99.2979438657
 31
0.0
  0
LINE
  5
7F
330
1F
100
AcDbEntity
  8
0
  6
Continuous
 62
     7
370
    25
100
AcDbLine
 10
362.6210432105
 20
97.854607066
 30
0.0
 11
363.7391527399
 21
98.5000779581
 31
0.0
  0
LINE
  5
80
330
1F
100
AcDbEntity
  8
0
  6
Continuous
 62
     7
370
    25
100
AcDbLine
 10
336.8589833094
 20
104.956442759
 30
0.0
 11
335.3229224493
 21
105.8431918185
 31
0.0
  0
LINE
  5
81
330
1F
100
AcDbEntity
  8
0
  6
Continuous
 62
     7
370
    25
100
AcDbLine
 10
360.8649768548
 20
91.0980776688
 30
0.0
 11
337.3228715438
 21
104.6886457814
 31
0.0
  0
LINE
  5
82
330
1F
100
AcDbEntity
  8
0
  6
Continuous
 62
     7
370
    25
100
AcDbLine
 10
362.8647310202
 20
89.9436441619
 30
0.0
 11
361.3288176741
 21
90.8303080634
 31
0.0
  0
LINE
  5
83
330
1F
100
AcDbEntity
  8
0
  6
Continuous
 62
     7
370
    25
100
AcDbLine
 10
334.572983554
 20
104.5441184111
 30
0.0
 11
362.1147921249
 21
88.6445707546
 31
0.0
  0
LINE
  5
84
330
1F
100
AcDbEntity
  8
0
  6
Continuous
 62
     7
370
    25
100
AcDbLine
 10
361.9651550076
 20
91.7539467883
 30
0.0
 11
360.8470054386
 21
91.1084527819
 31
0.0
  0
LINE
  5
85
330
1F
100
AcDbEntity
  8
0
  6
Continuous
 62
     7
370
    25
100
AcDbLine
 10
362.0971062536
 20
90.3867832131
 30
0.0
 11
362.5901042626
 21
90.6713849058
 31
0.0
  0
LINE
  5
86
330
1F
100
AcDbEntity
  8
0
  6
Continuous
 62
     7
370
    25
100
AcDbLine
 10
337.9588790782
 20
105.6124748953
 30
0.0
 11
336.8407295093
 21
104.9669808888
 31
0.0
  0
LINE
  5
87
330
1F
100
AcDbEntity
  8
0
  6
Continuous
 62
     7
370
    25
100
AcDbLine
 10
338.0908303242
 20
104.24531132
 30
0.0
 11
338.5838283333
 21
104.5299130127
 31
0.0
  0
LINE
  5
88
330
1F
100
AcDbEntity
  8
0
  6
Continuous
 62
     7
370
    25
100
AcDbLine
 10
370.2353118285
 20
69.7127759072
 30
0.0
 11
370.0659094198
 21
69.8169222336
 31
0.0
  0
SPLINE
  5
89
330
1F
100
AcDbEntity
  8
0
  6
Continuous
 62
     7
370
    25
100
AcDbSpline
210
0.0
220
0.0
230
1.0
 70
     8
 71
     3
 72
    14
 73
    10
 74
     0
 42
0.000000001
 43
0.00000001
 40
0.0
 40
0.0
 40
0.0
 40
0.0
 40
0.1173698001112296
 40
0.2706438931306345
 40
0.4247620215896137
 40
0.5816299138948477
 40
0.7418716381723204
 40
0.9048644057547209
 40
1.0
 40
1.0
 40
1.0
 40
1.0
 10
370.5043709873773
 20
69.3008498691853
 30
0.0
 10
370.5043565872624
 20
69.32019961390337
 30
0.0
 10
370.5043233819306
 20
69.36481833385191
 30
0.0
 10
370.4856741046403
 20
69.43359143622848
 30
0.0
 10
370.4523284010679
 20
69.50536527603494
 30
0.0
 10
370.4039803839066
 20
69.57352115097862
 30
0.0
 10
370.3414879504382
 20
69.63719570377427
 30
0.0
 10
370.2768001123382
 20
69.68752054029898
 30
0.0
 10
370.231328695082
 20
69.71500361223318
 30
0.0
 10
370.214569783852
 20
69.72513275248585
 30
0.0
  0
LINE
  5
8A
330
1F
100
AcDbEntity
  8
0
  6
Continuous
 62
     7
370
    25
100
AcDbLine
 10
368.6241674115
 20
69.3107789082
 30
0.0
 11
368.6252785078
 21
69.2889296164
 31
0.0
  0
LINE
  5
8B
330
1F
100
AcDbEntity
  8
0
  6
Continuous
 62
     7
370
    25
100
AcDbLine
 10
370.5058645663
 20
69.2291937057
 30
0.0
 11
370.5058645663
 21
69.3064713363
 31
0.0
  0
LINE
  5
8C
330
1F
100
AcDbEntity
  8
0
  6
Continuous
 62
     7
370
    25
100
AcDbLine
 10
368.6228650739
 20
69.3064710321
 30
0.0
 11
368.6228650739
 21
69.2291934015
 31
0.0
  0
SPLINE
  5
8D
330
1F
100
AcDbEntity
  8
0
  6
Continuous
 62
     7
370
    25
100
AcDbSpline
210
0.0
220
0.0
230
1.0
 70
     8
 71
     3
 72
    32
 73
    28
 74
     0
 42
0.000000001
 43
0.00000001
 40
0.0
 40
0.0
 40
0.0
 40
0.0
 40
0.0204344703004392
 40
0.0601295327556056
 40
0.1000763108068567
 40
0.1407542232385051
 40
0.1823034917936827
 40
0.2245506981843301
 40
0.2671876383334542
 40
0.3099454264877562
 40
0.3526587071622198
 40
0.3952918339720336
 40
0.437852278306972
 40
0.4803629790452771
 40
0.5228570058689888
 40
0.5653672732395222
 40
0.6079194873100747
 40
0.6505507791171863
 40
0.6932964229689407
 40
0.7361851269873321
 40
0.7792238252798374
 40
0.8223664190031057
 40
0.865394684817197
 40
0.9079737299244718
 40
0.9497163626260291
 40
0.9904464743497786
 40
1.0
 40
1.0
 40
1.0
 40
1.0
 10
368.6252785077925
 20
69.2116495523132
 30
0.0
 10
368.6255419955579
 20
69.19865109847476
 30
0.0
 10
368.6263173225414
 20
69.16040244586175
 30
0.0
 10
368.6447251139349
 20
69.09802822594617
 30
0.0
 10
368.6786397368077
 20
69.02642119201877
 30
0.0
 10
368.7278767214449
 20
68.9585069323634
 30
0.0
 10
368.7910050947621
 20
68.89502109426299
 30
0.0
 10
368.8675718272075
 20
68.83699771246748
 30
0.0
 10
368.9562139842743
 20
68.78555054378765
 30
0.0
 10
369.0552371661619
 20
68.74165969792234
 30
0.0
 10
369.1627394867398
 20
68.70604107395323
 30
0.0
 10
369.2768001850296
 20
68.67920759619875
 30
0.0
 10
369.3955056789961
 20
68.66149056390388
 30
0.0
 10
369.5169210977074
 20
68.65311156865697
 30
0.0
 10
369.6390866728468
 20
68.65416753078155
 30
0.0
 10
369.7600348381276
 20
68.66464556335136
 30
0.0
 10
369.8778223512703
 20
68.68440920600459
 30
0.0
 10
369.9905645007349
 20
68.713228909372
 30
0.0
 10
370.0964587206712
 20
68.75077479653257
 30
0.0
 10
370.1937832695037
 20
68.79666047084407
 30
0.0
 10
370.2808740669795
 20
68.85040247995904
 30
0.0
 10
370.3560880442933
 20
68.91141200597333
 30
0.0
 10
370.4176200237163
 20
68.97883061327867
 30
0.0
 10
370.4643977497938
 20
69.0514001857453
 30
0.0
 10
370.4934908382251
 20
69.1273809559329
 30
0.0
 10
370.5065356394304
 20
69.18557133199383
 30
0.0
 10
370.504716592982
 20
69.21750506194779
 30
0.0
 10
370.5043709873773
 20
69.22357223855147
 30
0.0
  0
LINE
  5
8E
330
1F
100
AcDbEntity
  8
0
  6
Continuous
 62
     7
370
    25
100
AcDbLine
 10
369.9800568162
 20
69.6060277073
 30
0.0
 11
369.9800568162
 21
69.7374892315
 31
0.0
  0
LINE
  5
8F
330
1F
100
AcDbEntity
  8
0
  6
Continuous
 62
     7
370
    25
100
AcDbLine
 10
367.7766849037
 20
145.4186825533
 30
0.0
 11
367.7766849037
 21
71.942256708
 31
0.0
  0
LINE
  5
90
330
1F
100
AcDbEntity
  8
0
  6
Continuous
 62
     7
370
    25
100
AcDbLine
 10
385.0634381987
 20
157.5037135035
 30
0.0
 11
382.5178536326
 21
156.0341788134
 31
0.0
  0
LWPOLYLINE
  5
91
330
1F
100
AcDbEntity
  8
0
  6
Continuous
 62
     7
370
    25
100
AcDbPolyline
 90
       11
 70
   128
 43
0.0
 10
382.5178536326
 20
156.0341788134
 10
382.4741520922
 20
156.0009588987
 10
382.4347281935
 20
155.9550040232
 10
382.4034412708
 20
155.900812571
 10
382.3833538194
 20
155.8436907648
 10
382.3764322532
 20
155.7892294955
 10
382.3833538194
 20
155.7427621299
 10
382.4034412708
 20
155.7088328015
 10
382.4347281935
 20
155.6907644614
 10
382.4741520922
 20
155.6903274504
 10
382.5178536326
 20
155.7075618268
  0
LINE
  5
92
330
1F
100
AcDbEntity
  8
0
  6
Continuous
 62
     7
370
    25
100
AcDbLine
 10
382.5178536326
 20
155.7075618268
 30
0.0
 11
385.0634381987
 21
157.1770965169
 31
0.0
  0
LWPOLYLINE
  5
93
330
1F
100
AcDbEntity
  8
0
  6
Continuous
 62
     7
370
    25
100
AcDbPolyline
 90
       11
 70
   128
 43
0.0
 10
385.0634381987
 20
157.1770965169
 10
385.1071397391
 20
157.210318865
 10
385.1465633744
 20
157.2562735885
 10
385.1778505605
 20
157.3104651928
 10
385.1979377485
 20
157.3675868468
 10
385.2048593147
 20
157.4220456827
 10
385.1979377485
 20
157.4685154818
 10
385.1778505605
 20
157.5024449622
 10
385.1465633744
 20
157.5205131503
 10
385.1071397391
 20
157.5209503133
 10
385.0634381987
 20
157.5037135035
  0
LINE
  5
94
330
1F
100
AcDbEntity
  8
0
  6
Continuous
 62
     7
370
    25
100
AcDbLine
 10
385.0634381987
 20
161.0148400264
 30
0.0
 11
382.5178536326
 21
159.5453053363
 31
0.0
  0
LWPOLYLINE
  5
95
330
1F
100
AcDbEntity
  8
0
  6
Continuous
 62
     7
370
    25
100
AcDbPolyline
 90
       11
 70
   128
 43
0.0
 10
382.5178536326
 20
159.5453053363
 10
382.4741520922
 20
159.5120854216
 10
382.4347281935
 20
159.4661305461
 10
382.4034412708
 20
159.4119366604
 10
382.3833538194
 20
159.3548148543
 10
382.3764322532
 20
159.300353585
 10
382.3833538194
 20
159.2538886528
 10
382.4034412708
 20
159.2199593244
 10
382.4347281935
 20
159.2018885509
 10
382.4741520922
 20
159.2014515398
 10
382.5178536326
 20
159.2186883497
  0
LINE
  5
96
330
1F
100
AcDbEntity
  8
0
  6
Continuous
 62
     7
370
    25
100
AcDbLine
 10
382.5178536326
 20
159.2186883497
 30
0.0
 11
385.0634381987
 21
160.6882230398
 31
0.0
  0
LWPOLYLINE
  5
97
330
1F
100
AcDbEntity
  8
0
  6
Continuous
 62
     7
370
    25
100
AcDbPolyline
 90
       11
 70
   128
 43
0.0
 10
385.0634381987
 20
160.6882230398
 10
385.1071397391
 20
160.7214429545
 10
385.1465633744
 20
160.7673976779
 10
385.1778505605
 20
160.8215917157
 10
385.1979377485
 20
160.8787133698
 10
385.2048593147
 20
160.9331697721
 10
385.1979377485
 20
160.9796395712
 10
385.1778505605
 20
161.0135690516
 10
385.1465633744
 20
161.0316396732
 10
385.1071397391
 20
161.0320768363
 10
385.0634381987
 20
161.0148400264
  0
LINE
  5
98
330
1F
100
AcDbEntity
  8
0
  6
Continuous
 62
     7
370
    25
100
AcDbLine
 10
381.1036401018
 20
154.8911537332
 30
0.0
 11
381.6339702088
 21
155.1973067873
 31
0.0
  0
LWPOLYLINE
  5
99
330
1F
100
AcDbEntity
  8
0
  6
Continuous
 62
     7
370
    25
100
AcDbPolyline
 90
       11
 70
   128
 43
0.0
 10
381.6339702088
 20
155.1973067873
 10
381.6776717492
 20
155.2305291355
 10
381.7170956479
 20
155.276484011
 10
381.7483823072
 20
155.3306753112
 10
381.7684697586
 20
155.3877971173
 10
381.7753915882
 20
155.4422561052
 10
381.7684697586
 20
155.4887257522
 10
381.7483823072
 20
155.5226550806
 10
381.7170956479
 20
155.5407235728
 10
381.6776717492
 20
155.5411605838
 10
381.6339702088
 20
155.523923774
  0
LINE
  5
9A
330
1F
100
AcDbEntity
  8
0
  6
Continuous
 62
     7
370
    25
100
AcDbLine
 10
381.6339702088
 20
155.523923774
 30
0.0
 11
381.1036401018
 21
155.2177707199
 31
0.0
  0
LWPOLYLINE
  5
9B
330
1F
100
AcDbEntity
  8
0
  6
Continuous
 62
     7
370
    25
100
AcDbPolyline
 90
       11
 70
   128
 43
0.0
 10
381.1036401018
 20
155.2177707199
 10
381.0599385615
 20
155.1845508052
 10
381.0205146628
 20
155.1385959296
 10
380.98922774
 20
155.0844044774
 10
380.9691402886
 20
155.0272826713
 10
380.9622187224
 20
154.972821402
 10
380.9691402886
 20
154.9263540364
 10
380.98922774
 20
154.892424708
 10
381.0205146628
 20
154.8743563679
 10
381.0599385615
 20
154.8739193568
 10
381.1036401018
 20
154.8911537332
  0
LINE
  5
9C
330
1F
100
AcDbEntity
  8
0
  6
Continuous
 62
     7
370
    25
100
AcDbLine
 10
381.1036401018
 20
158.4022802561
 30
0.0
 11
381.6339702088
 21
158.7084333102
 31
0.0
  0
LWPOLYLINE
  5
9D
330
1F
100
AcDbEntity
  8
0
  6
Continuous
 62
     7
370
    25
100
AcDbPolyline
 90
       11
 70
   128
 43
0.0
 10
381.6339702088
 20
158.7084333102
 10
381.6776717492
 20
158.7416532249
 10
381.7170956479
 20
158.7876081005
 10
381.7483823072
 20
158.8418018341
 10
381.7684697586
 20
158.8989236402
 10
381.7753915882
 20
158.9533801946
 10
381.7684697586
 20
158.9998498416
 10
381.7483823072
 20
159.03377917
 10
381.7170956479
 20
159.0518500957
 10
381.6776717492
 20
159.0522871067
 10
381.6339702088
 20
159.0350502969
  0
LINE
  5
9E
330
1F
100
AcDbEntity
  8
0
  6
Continuous
 62
     7
370
    25
100
AcDbLine
 10
381.6339702088
 20
159.0350502969
 30
0.0
 11
381.1036401018
 21
158.7288972428
 31
0.0
  0
LWPOLYLINE
  5
9F
330
1F
100
AcDbEntity
  8
0
  6
Continuous
 62
     7
370
    25
100
AcDbPolyline
 90
       11
 70
   128
 43
0.0
 10
381.1036401018
 20
158.7288972428
 10
381.0599385615
 20
158.6956773281
 10
381.0205146628
 20
158.6497224525
 10
380.98922774
 20
158.5955285668
 10
380.9691402886
 20
158.5384067607
 10
380.9622187224
 20
158.4839454914
 10
380.9691402886
 20
158.4374805593
 10
380.98922774
 20
158.4035512309
 10
381.0205146628
 20
158.3854804573
 10
381.0599385615
 20
158.3850434463
 10
381.1036401018
 20
158.4022802561
  0
LINE
  5
A0
330
1F
100
AcDbEntity
  8
0
  6
Continuous
 62
     7
370
    25
100
AcDbLine
 10
370.0741886413
 20
148.523986934
 30
0.0
 11
372.619772944
 21
149.993521472
 31
0.0
  0
LWPOLYLINE
  5
A1
330
1F
100
AcDbEntity
  8
0
  6
Continuous
 62
     7
370
    25
100
AcDbPolyline
 90
       11
 70
   128
 43
0.0
 10
372.619772944
 20
149.993521472
 10
372.6634744844
 20
150.0267438202
 10
372.7028981197
 20
150.0726985437
 10
372.7341853058
 20
150.126890148
 10
372.7542724938
 20
150.184011802
 10
372.76119406
 20
150.2384706378
 10
372.7542724938
 20
150.2849404369
 10
372.7341853058
 20
150.3188699174
 10
372.7028981197
 20
150.3369381054
 10
372.6634744844
 20
150.3373752685
 10
372.619772944
 20
150.3201384587
  0
LINE
  5
A2
330
1F
100
AcDbEntity
  8
0
  6
Continuous
 62
     7
370
    25
100
AcDbLine
 10
372.619772944
 20
150.3201384587
 30
0.0
 11
370.0741886413
 21
148.8506039207
 31
0.0
  0
LWPOLYLINE
  5
A3
330
1F
100
AcDbEntity
  8
0
  6
Continuous
 62
     7
370
    25
100
AcDbPolyline
 90
       11
 70
   128
 43
0.0
 10
370.0741886413
 20
148.8506039207
 10
370.030487101
 20
148.817384006
 10
369.9910629389
 20
148.7714289783
 10
369.9597762795
 20
148.7172376782
 10
369.9396885647
 20
148.66011572
 10
369.9327669985
 20
148.6056544507
 10
369.9396885647
 20
148.5591870851
 10
369.9597762795
 20
148.5252579088
 10
369.9910629389
 20
148.5071894166
 10
370.030487101
 20
148.5067525577
 10
370.0741886413
 20
148.523986934
  0
LINE
  5
A4
330
1F
100
AcDbEntity
  8
0
  6
Continuous
 62
     7
370
    25
100
AcDbLine
 10
370.0741886413
 20
152.0351134569
 30
0.0
 11
372.619772944
 21
153.5046479949
 31
0.0
  0
LWPOLYLINE
  5
A5
330
1F
100
AcDbEntity
  8
0
  6
Continuous
 62
     7
370
    25
100
AcDbPolyline
 90
       11
 70
   128
 43
0.0
 10
372.619772944
 20
153.5046479949
 10
372.6634744844
 20
153.5378679096
 10
372.7028981197
 20
153.5838226331
 10
372.7341853058
 20
153.6380166709
 10
372.7542724938
 20
153.6951383249
 10
372.76119406
 20
153.7495947273
 10
372.7542724938
 20
153.7960645264
 10
372.7341853058
 20
153.8299940068
 10
372.7028981197
 20
153.8480646283
 10
372.6634744844
 20
153.8485017914
 10
372.619772944
 20
153.8312649816
  0
LINE
  5
A6
330
1F
100
AcDbEntity
  8
0
  6
Continuous
 62
     7
370
    25
100
AcDbLine
 10
372.619772944
 20
153.8312649816
 30
0.0
 11
370.0741886413
 21
152.3617304436
 31
0.0
  0
LWPOLYLINE
  5
A7
330
1F
100
AcDbEntity
  8
0
  6
Continuous
 62
     7
370
    25
100
AcDbPolyline
 90
       11
 70
   128
 43
0.0
 10
370.0741886413
 20
152.3617304436
 10
370.030487101
 20
152.3285105289
 10
369.9910629389
 20
152.2825555012
 10
369.9597762795
 20
152.2283617676
 10
369.9396885647
 20
152.1712398094
 10
369.9327669985
 20
152.1167785401
 10
369.9396885647
 20
152.070313608
 10
369.9597762795
 20
152.0363844317
 10
369.9910629389
 20
152.018313506
 10
370.030487101
 20
152.0178766471
 10
370.0741886413
 20
152.0351134569
  0
LINE
  5
A8
330
1F
100
AcDbEntity
  8
0
  6
Continuous
 62
     7
370
    25
100
AcDbLine
 10
368.3764250749
 20
154.0762164549
 30
0.0
 11
368.3764250749
 21
146.114943831
 31
0.0
  0
LINE
  5
A9
330
1F
100
AcDbEntity
  8
0
  6
Continuous
 62
     7
370
    25
100
AcDbLine
 10
386.7612012383
 20
164.6895218234
 30
0.0
 11
368.3764250749
 21
154.0762164549
 31
0.0
  0
LINE
  5
AA
330
1F
100
AcDbEntity
  8
0
  6
Continuous
 62
     7
370
    25
100
AcDbLine
 10
386.7612012383
 20
164.6895218234
 30
0.0
 11
386.7612012383
 21
156.7282491996
 31
0.0
  0
LINE
  5
AB
330
1F
100
AcDbEntity
  8
0
  6
Continuous
 62
     7
370
    25
100
AcDbLine
 10
386.7612012383
 20
156.7282491996
 30
0.0
 11
368.3764250749
 21
146.114943831
 31
0.0
  0
LINE
  5
AC
330
1F
100
AcDbEntity
  8
0
  6
Continuous
 62
     7
370
    25
100
AcDbLine
 10
370.0741886413
 20
153.7906755016
 30
0.0
 11
372.619772944
 21
155.2602100396
 31
0.0
  0
LWPOLYLINE
  5
AD
330
1F
100
AcDbEntity
  8
0
  6
Continuous
 62
     7
370
    25
100
AcDbPolyline
 90
       11
 70
   128
 43
0.0
 10
372.619772944
 20
155.2602100396
 10
372.6634744844
 20
155.2934299543
 10
372.7028981197
 20
155.3393846778
 10
372.7341853058
 20
155.3935787156
 10
372.7542724938
 20
155.4507003696
 10
372.76119406
 20
155.5051616389
 10
372.7542724938
 20
155.5516265711
 10
372.7341853058
 20
155.5855560515
 10
372.7028981197
 20
155.603626673
 10
372.6634744844
 20
155.6040638361
 10
372.619772944
 20
155.5868270263
  0
LINE
  5
AE
330
1F
100
AcDbEntity
  8
0
  6
Continuous
 62
     7
370
    25
100
AcDbLine
 10
372.619772944
 20
155.5868270263
 30
0.0
 11
370.0741886413
 21
154.1172924883
 31
0.0
  0
LWPOLYLINE
  5
AF
330
1F
100
AcDbEntity
  8
0
  6
Continuous
 62
     7
370
    25
100
AcDbPolyline
 90
       11
 70
   128
 43
0.0
 10
370.0741886413
 20
154.1172924883
 10
370.030487101
 20
154.0840725736
 10
369.9910629389
 20
154.038117546
 10
369.9597762795
 20
153.9839238123
 10
369.9396885647
 20
153.9268018541
 10
369.9327669985
 20
153.8723454518
 10
369.9396885647
 20
153.8258756527
 10
369.9597762795
 20
153.7919464764
 10
369.9910629389
 20
153.7738755507
 10
370.030487101
 20
153.7734386918
 10
370.0741886413
 20
153.7906755016
  0
LINE
  5
B0
330
1F
100
AcDbEntity
  8
0
  6
Continuous
 62
     7
370
    25
100
AcDbLine
 10
370.0741886413
 20
150.2795514122
 30
0.0
 11
372.619772944
 21
151.7490859502
 31
0.0
  0
LWPOLYLINE
  5
B1
330
1F
100
AcDbEntity
  8
0
  6
Continuous
 62
     7
370
    25
100
AcDbPolyline
 90
       11
 70
   128
 43
0.0
 10
372.619772944
 20
151.7490859502
 10
372.6634744844
 20
151.7823058649
 10
372.7028981197
 20
151.8282605884
 10
372.7341853058
 20
151.8824497592
 10
372.7542724938
 20
151.9395714132
 10
372.76119406
 20
151.9940326826
 10
372.7542724938
 20
152.0405024816
 10
372.7341853058
 20
152.0744319621
 10
372.7028981197
 20
152.0924977167
 10
372.6634744844
 20
152.0929348797
 10
372.619772944
 20
152.0757029369
  0
LINE
  5
B2
330
1F
100
AcDbEntity
  8
0
  6
Continuous
 62
     7
370
    25
100
AcDbLine
 10
372.619772944
 20
152.0757029369
 30
0.0
 11
370.0741886413
 21
150.6061683989
 31
0.0
  0
LWPOLYLINE
  5
B3
330
1F
100
AcDbEntity
  8
0
  6
Continuous
 62
     7
370
    25
100
AcDbPolyline
 90
       11
 70
   128
 43
0.0
 10
370.0741886413
 20
150.6061683989
 10
370.030487101
 20
150.5729436172
 10
369.9910629389
 20
150.5269885896
 10
369.9597762795
 20
150.4727997229
 10
369.9396885647
 20
150.4156777647
 10
369.9327669985
 20
150.3612164954
 10
369.9396885647
 20
150.3147466963
 10
369.9597762795
 20
150.28081752
 10
369.9910629389
 20
150.2627514613
 10
370.030487101
 20
150.2623146024
 10
370.0741886413
 20
150.2795514122
  0
LINE
  5
B4
330
1F
100
AcDbEntity
  8
0
  6
Continuous
 62
     7
370
    25
100
AcDbLine
 10
381.1036401018
 20
160.1578423008
 30
0.0
 11
381.6339702088
 21
160.4639953549
 31
0.0
  0
LWPOLYLINE
  5
B5
330
1F
100
AcDbEntity
  8
0
  6
Continuous
 62
     7
370
    25
100
AcDbPolyline
 90
       11
 70
   128
 43
0.0
 10
381.6339702088
 20
160.4639953549
 10
381.6776717492
 20
160.4972152696
 10
381.7170956479
 20
160.5431701452
 10
381.7483823072
 20
160.5973638788
 10
381.7684697586
 20
160.6544856849
 10
381.7753915882
 20
160.7089471063
 10
381.7684697586
 20
160.7554118863
 10
381.7483823072
 20
160.7893412147
 10
381.7170956479
 20
160.8074121404
 10
381.6776717492
 20
160.8078491514
 10
381.6339702088
 20
160.7906123416
  0
LINE
  5
B6
330
1F
100
AcDbEntity
  8
0
  6
Continuous
 62
     7
370
    25
100
AcDbLine
 10
381.6339702088
 20
160.7906123416
 30
0.0
 11
381.1036401018
 21
160.4844592875
 31
0.0
  0
LWPOLYLINE
  5
B7
330
1F
100
AcDbEntity
  8
0
  6
Continuous
 62
     7
370
    25
100
AcDbPolyline
 90
       11
 70
   128
 43
0.0
 10
381.1036401018
 20
160.4844592875
 10
381.0599385615
 20
160.4512393728
 10
381.0205146628
 20
160.4052844972
 10
380.98922774
 20
160.3510906115
 10
380.9691402886
 20
160.2939688054
 10
380.9622187224
 20
160.2395124031
 10
380.9691402886
 20
160.193042604
 10
380.98922774
 20
160.1591132756
 10
381.0205146628
 20
160.141042502
 10
381.0599385615
 20
160.140605491
 10
381.1036401018
 20
160.1578423008
  0
LINE
  5
B8
330
1F
100
AcDbEntity
  8
0
  6
Continuous
 62
     7
370
    25
100
AcDbLine
 10
381.1036401018
 20
156.6467182114
 30
0.0
 11
381.6339702088
 21
156.9528712655
 31
0.0
  0
LWPOLYLINE
  5
B9
330
1F
100
AcDbEntity
  8
0
  6
Continuous
 62
     7
370
    25
100
AcDbPolyline
 90
       11
 70
   128
 43
0.0
 10
381.6339702088
 20
156.9528712655
 10
381.6776717492
 20
156.9860911802
 10
381.7170956479
 20
157.0320460557
 10
381.7483823072
 20
157.0862349224
 10
381.7684697586
 20
157.1433567285
 10
381.7753915882
 20
157.1978181499
 10
381.7684697586
 20
157.2442877969
 10
381.7483823072
 20
157.2782171253
 10
381.7170956479
 20
157.296283184
 10
381.6776717492
 20
157.296720195
 10
381.6339702088
 20
157.2794882521
  0
LINE
  5
BA
330
1F
100
AcDbEntity
  8
0
  6
Continuous
 62
     7
370
    25
100
AcDbLine
 10
381.6339702088
 20
157.2794882521
 30
0.0
 11
381.1036401018
 21
156.973335198
 31
0.0
  0
LWPOLYLINE
  5
BB
330
1F
100
AcDbEntity
  8
0
  6
Continuous
 62
     7
370
    25
100
AcDbPolyline
 90
       11
 70
   128
 43
0.0
 10
381.1036401018
 20
156.973335198
 10
381.0599385615
 20
156.9401104164
 10
381.0205146628
 20
156.8941555408
 10
380.98922774
 20
156.8399665221
 10
380.9691402886
 20
156.782844716
 10
380.9622187224
 20
156.7283834467
 10
380.9691402886
 20
156.6819136476
 10
380.98922774
 20
156.6479843192
 10
381.0205146628
 20
156.6299184126
 10
381.0599385615
 20
156.6294814016
 10
381.1036401018
 20
156.6467182114
  0
LINE
  5
BC
330
1F
100
AcDbEntity
  8
0
  6
Continuous
 62
     7
370
    25
100
AcDbLine
 10
385.0634381987
 20
162.7704020711
 30
0.0
 11
382.5178536326
 21
161.300867381
 31
0.0
  0
LWPOLYLINE
  5
BD
330
1F
100
AcDbEntity
  8
0
  6
Continuous
 62
     7
370
    25
100
AcDbPolyline
 90
       11
 70
   128
 43
0.0
 10
382.5178536326
 20
161.300867381
 10
382.4741520922
 20
161.2676474663
 10
382.4347281935
 20
161.2216925908
 10
382.4034412708
 20
161.1674987051
 10
382.3833538194
 20
161.110376899
 10
382.3764322532
 20
161.0559204966
 10
382.3833538194
 20
161.0094506975
 10
382.4034412708
 20
160.9755213692
 10
382.4347281935
 20
160.9574505956
 10
382.4741520922
 20
160.9570135846
 10
382.5178536326
 20
160.9742503944
  0
LINE
  5
BE
330
1F
100
AcDbEntity
  8
0
  6
Continuous
 62
     7
370
    25
100
AcDbLine
 10
382.5178536326
 20
160.9742503944
 30
0.0
 11
385.0634381987
 21
162.4437850845
 31
0.0
  0
LWPOLYLINE
  5
BF
330
1F
100
AcDbEntity
  8
0
  6
Continuous
 62
     7
370
    25
100
AcDbPolyline
 90
       11
 70
   128
 43
0.0
 10
385.0634381987
 20
162.4437850845
 10
385.1071397391
 20
162.4770049992
 10
385.1465633744
 20
162.5229597227
 10
385.1778505605
 20
162.5771537604
 10
385.1979377485
 20
162.6342754145
 10
385.2048593147
 20
162.6887366838
 10
385.1979377485
 20
162.7352016159
 10
385.1778505605
 20
162.7691310964
 10
385.1465633744
 20
162.7872017179
 10
385.1071397391
 20
162.787638881
 10
385.0634381987
 20
162.7704020711
  0
LINE
  5
C0
330
1F
100
AcDbEntity
  8
0
  6
Continuous
 62
     7
370
    25
100
AcDbLine
 10
385.0634381987
 20
159.2592779817
 30
0.0
 11
382.5178536326
 21
157.7897432916
 31
0.0
  0
LWPOLYLINE
  5
C1
330
1F
100
AcDbEntity
  8
0
  6
Continuous
 62
     7
370
    25
100
AcDbPolyline
 90
       11
 70
   128
 43
0.0
 10
382.5178536326
 20
157.7897432916
 10
382.4741520922
 20
157.75651851
 10
382.4347281935
 20
157.7105636344
 10
382.4034412708
 20
157.6563746157
 10
382.3833538194
 20
157.5992528096
 10
382.3764322532
 20
157.5447915402
 10
382.3833538194
 20
157.4983217412
 10
382.4034412708
 20
157.4643924128
 10
382.4347281935
 20
157.4463265061
 10
382.4741520922
 20
157.4458894951
 10
382.5178536326
 20
157.463126305
  0
LINE
  5
C2
330
1F
100
AcDbEntity
  8
0
  6
Continuous
 62
     7
370
    25
100
AcDbLine
 10
382.5178536326
 20
157.463126305
 30
0.0
 11
385.0634381987
 21
158.932660995
 31
0.0
  0
LWPOLYLINE
  5
C3
330
1F
100
AcDbEntity
  8
0
  6
Continuous
 62
     7
370
    25
100
AcDbPolyline
 90
       11
 70
   128
 43
0.0
 10
385.0634381987
 20
158.932660995
 10
385.1071397391
 20
158.9658809097
 10
385.1465633744
 20
159.0118356332
 10
385.1778505605
 20
159.066024804
 10
385.1979377485
 20
159.1231464581
 10
385.2048593147
 20
159.1776077274
 10
385.1979377485
 20
159.2240775265
 10
385.1778505605
 20
159.2580070069
 10
385.1465633744
 20
159.2760727615
 10
385.1071397391
 20
159.2765099246
 10
385.0634381987
 20
159.2592779817
  0
LINE
  5
C4
330
1F
100
AcDbEntity
  8
0
  6
Continuous
 62
     7
370
    25
100
AcDbLine
 10
355.4363716241
 20
182.7729610429
 30
0.0
 11
386.7612012383
 21
164.6895218234
 31
0.0
  0
LINE
  5
C5
330
1F
100
AcDbEntity
  8
0
  6
Continuous
 62
     7
370
    25
100
AcDbLine
 10
368.3764250749
 20
154.0762164549
 30
0.0
 11
337.0515954607
 21
172.1596556744
 31
0.0
  0
LINE
  5
C6
330
1F
100
AcDbEntity
  8
0
  6
Continuous
 62
     7
370
    25
100
AcDbLine
 10
337.0515954607
 20
172.1596556744
 30
0.0
 11
355.4363716241
 21
182.7729610429
 31
0.0
  0
LINE
  5
C7
330
1F
100
AcDbEntity
  8
0
  6
Continuous
 62
     7
370
    25
100
AcDbLine
 10
337.0515954607
 20
172.1596556744
 30
0.0
 11
337.0515954607
 21
172.0167859901
 31
0.0
  0
LINE
  5
C8
330
1F
100
AcDbEntity
  8
0
  6
Continuous
 62
     7
370
    25
100
AcDbLine
 10
368.3764250749
 20
146.114943831
 30
0.0
 11
368.2526819277
 21
146.1863792294
 31
0.0
  0
LINE
  5
C9
330
1F
100
AcDbEntity
  8
0
  6
Continuous
 62
     7
370
    25
100
AcDbLine
 10
365.8131633303
 20
91.5396133671
 30
0.0
 11
367.7766849037
 21
92.6731302438
 31
0.0
  0
LINE
  5
CA
330
1F
100
AcDbEntity
  8
0
  6
Continuous
 62
     7
370
    25
100
AcDbLine
 10
365.8131633303
 20
144.451458133
 30
0.0
 11
365.8131633303
 21
91.5396133671
 31
0.0
  0
LINE
  5
CB
330
1F
100
AcDbEntity
  8
0
  6
Continuous
 62
     7
370
    25
100
AcDbLine
 10
365.8131633303
 20
144.451458133
 30
0.0
 11
367.8991288743
 21
145.6556604094
 31
0.0
  0
LINE
  5
CC
330
1F
100
AcDbEntity
  8
0
  6
Continuous
 62
     7
370
    25
100
AcDbLine
 10
367.8991288743
 20
145.6556604094
 30
0.0
 11
367.8991288743
 21
145.4515789377
 31
0.0
  0
ARC
  5
CD
330
1F
100
AcDbEntity
  8
0
  6
Continuous
 62
     7
370
    25
100
AcDbCircle
 10
363.5630558607
 20
98.7521153746
 30
0.0
 40
0.3074621443318838
100
AcDbArc
 50
304.9417459007
 51
6.3705880252
  0
LWPOLYLINE
  5
CE
330
1F
100
AcDbEntity
  8
0
  6
Continuous
 62
     7
370
    25
100
AcDbPolyline
 90
       15
 70
   128
 43
0.0
 10
363.1142034849
 20
99.5826392322
 10
363.1638840826
 20
99.6033765458
 10
363.227714431
 20
99.611911887
 10
363.2972672677
 20
99.6040339341
 10
363.3705437785
 20
99.5799688133
 10
363.4454345137
 20
99.5404086522
 10
363.5197857691
 20
99.4864921177
 10
363.5914585923
 20
99.4197697452
 10
363.6583909488
 20
99.3421613579
 10
363.7186577812
 20
99.2558988858
 10
363.7705247466
 20
99.1634649254
 10
363.812498793
 20
99.0675185233
 10
363.8433745206
 20
98.9708185258
 10
363.8622626307
 20
98.8761487519
 10
363.8686194292
 20
98.7862309993
  0
ARC
  5
CF
330
1F
100
AcDbEntity
  8
0
  6
Continuous
 62
     7
370
    25
100
AcDbCircle
 10
363.5630538118
 20
135.3331445865
 30
0.0
 40
0.30746407774523
100
AcDbArc
 50
304.941959948
 51
6.3703739778
  0
LWPOLYLINE
  5
D0
330
1F
100
AcDbEntity
  8
0
  6
Continuous
 62
     7
370
    25
100
AcDbPolyline
 90
       15
 70
   128
 43
0.0
 10
363.1142034849
 20
136.1636669088
 10
363.1638840826
 20
136.1844060474
 10
363.227714431
 20
136.1929395635
 10
363.2972672677
 20
136.1850628274
 10
363.3705437785
 20
136.1609977066
 10
363.4454345137
 20
136.1214363287
 10
363.5197857691
 20
136.0675197942
 10
363.5914585923
 20
136.0007992468
 10
363.6583909488
 20
135.9231902511
 10
363.7186577812
 20
135.8369283874
 10
363.7705247466
 20
135.7444919936
 10
363.812498793
 20
135.6485461998
 10
363.8433745206
 20
135.5518480274
 10
363.8622626307
 20
135.4571764284
 10
363.8686194292
 20
135.3672592842
  0
LINE
  5
D1
330
1F
100
AcDbEntity
  8
0
  6
Continuous
 62
     7
370
    25
100
AcDbLine
 10
334.7358200106
 20
162.3920265558
 30
0.0
 11
365.8131633303
 21
144.451458133
 31
0.0
  0
LINE
  5
D2
330
1F
100
AcDbEntity
  8
0
  6
Continuous
 62
     7
370
    25
100
AcDbLine
 10
365.8131633303
 20
91.5396133671
 30
0.0
 11
334.7358200106
 21
109.4801817899
 31
0.0
  0
LINE
  5
D3
330
1F
100
AcDbEntity
  8
0
  6
Continuous
 62
     7
370
    25
100
AcDbLine
 10
334.7358200106
 20
109.4801817899
 30
0.0
 11
334.7358200106
 21
162.3920265558
 31
0.0
  0
LINE
  5
D4
330
1F
100
AcDbEntity
  8
0
  6
Continuous
 62
     7
370
    25
100
AcDbLine
 10
334.7358200106
 20
162.3920265558
 30
0.0
 11
335.0187086041
 21
162.5553346647
 31
0.0
  0
LINE
  5
D5
330
1F
100
AcDbEntity
  8
0
  6
Continuous
 62
     7
370
    25
100
AcDbLine
 10
367.6162402808
 20
145.8189685184
 30
0.0
 11
367.8991288743
 21
145.6556604094
 31
0.0
  0
SPLINE
  5
D6
330
1F
100
AcDbEntity
  8
0
  6
Continuous
 62
     7
370
    25
100
AcDbSpline
210
0.0
220
0.0
230
1.0
 70
     8
 71
     3
 72
    11
 73
     7
 74
     0
 42
0.000000001
 43
0.00000001
 40
0.0
 40
0.0
 40
0.0
 40
0.0
 40
0.3594914018355667
 40
0.6074333168358641
 40
0.862068048862252
 40
1.0
 40
1.0
 40
1.0
 40
1.0
 10
362.6061358701327
 20
98.05741475399982
 30
0.0
 10
362.6072363913564
 20
98.09634298234803
 30
0.0
 10
362.6090959441962
 20
98.16212008506416
 30
0.0
 10
362.6161948866314
 20
98.26746882047385
 30
0.0
 10
362.6210095703424
 20
98.34605544473689
 30
0.0
 10
362.6201222006998
 20
98.39374108806027
 30
0.0
 10
362.6198104151321
 20
98.41049588184927
 30
0.0
  0
SPLINE
  5
D7
330
1F
100
AcDbEntity
  8
0
  6
Continuous
 62
     7
370
    25
100
AcDbSpline
210
0.0
220
0.0
230
1.0
 70
     8
 71
     3
 72
    12
 73
     8
 74
     0
 42
0.000000001
 43
0.00000001
 40
0.0
 40
0.0
 40
0.0
 40
0.0
 40
0.0009137042311958
 40
0.2709766838786232
 40
0.5468793199006784
 40
0.9049603085662874
 40
1.0
 40
1.0
 40
1.0
 40
1.0
 10
362.6210284590541
 20
97.87329272671232
 30
0.0
 10
362.6210333895076
 20
97.8733111664821
 30
0.0
 10
362.6224956109788
 20
97.87877983730077
 30
0.0
 10
362.6183528731442
 20
97.90134226949274
 30
0.0
 10
362.6122412182571
 20
97.94669123972285
 30
0.0
 10
362.6065411561934
 20
98.00339702148986
 30
0.0
 10
362.6062061383683
 20
98.04804919440028
 30
0.0
 10
362.6061358701327
 20
98.05741475399982
 30
0.0
  0
SPLINE
  5
D8
330
1F
100
AcDbEntity
  8
0
  6
Continuous
 62
     7
370
    25
100
AcDbSpline
210
0.0
220
0.0
230
1.0
 70
     8
 71
     3
 72
    11
 73
     7
 74
     0
 42
0.000000001
 43
0.00000001
 40
0.0
 40
0.0
 40
0.0
 40
0.0
 40
0.3594929607144331
 40
0.607435950876499
 40
0.862073464950308
 40
0.9999999999999999
 40
0.9999999999999999
 40
0.9999999999999999
 40
0.9999999999999999
 10
362.6061358701327
 20
134.6384430388761
 30
0.0
 10
362.6072363915436
 20
134.6051502102245
 30
0.0
 10
362.6090959446996
 20
134.5488952532731
 30
0.0
 10
362.6161948991254
 20
134.4994383358263
 30
0.0
 10
362.621009554201
 20
134.4699656071076
 30
0.0
 10
362.6201221889916
 20
134.4604707302499
 30
0.0
 10
362.6198104151321
 20
134.4571347256702
 30
0.0
  0
SPLINE
  5
D9
330
1F
100
AcDbEntity
  8
0
  6
Continuous
 62
     7
370
    25
100
AcDbSpline
210
0.0
220
0.0
230
1.0
 70
     8
 71
     3
 72
    12
 73
     8
 74
     0
 42
0.000000001
 43
0.00000001
 40
0.0
 40
0.0
 40
0.0
 40
0.0
 40
0.0009151176244193
 40
0.2709728016795914
 40
0.5468801426172052
 40
0.9049584863423221
 40
1.0
 40
1.0
 40
1.0
 40
1.0
 10
362.6210284590541
 20
134.994353695667
 30
0.0
 10
362.6210333895344
 20
134.994242577503
 30
0.0
 10
362.6224933396487
 20
134.9613397031417
 30
0.0
 10
362.61835379658
 20
134.8931834041549
 30
0.0
 10
362.6122409526983
 20
134.7823362207373
 30
0.0
 10
362.6065411534317
 20
134.6948983446333
 30
0.0
 10
362.6062061391087
 20
134.6482313931758
 30
0.0
 10
362.6061358701327
 20
134.6384430388761
 30
0.0
  0
LWPOLYLINE
  5
DA
330
1F
100
AcDbEntity
  8
0
  6
Continuous
 62
     7
370
    25
100
AcDbPolyline
 90
       22
 70
   128
 43
0.0
 10
361.121043194
 20
96.1019586814
 10
361.1277750994
 20
96.0440749626
 10
361.151792481
 20
95.9792551245
 10
361.1926675483
 20
95.9173105854
 10
361.249443568
 20
95.8596938978
 10
361.3207886995
 20
95.8077566405
 10
361.4050328739
 20
95.7627147484
 10
361.5001983505
 20
95.7256247888
 10
361.6040566146
 20
95.6973547652
 10
361.7141726321
 20
95.6785695182
 10
361.827965962
 20
95.6697076116
 10
361.942768709
 20
95.6709770741
 10
362.0558897967
 20
95.6823487087
 10
362.1646792421
 20
95.7035554843
 10
362.2665861071
 20
95.7341004431
 10
362.3592206655
 20
95.7732682579
 10
362.4404134081
 20
95.8201398306
 10
362.5082614048
 20
95.8736166228
 10
362.5611725585
 20
95.9324462038
 10
362.597906698
 20
95.9952484055
 10
362.617606135
 20
96.0605524277
 10
362.6210432105
 20
96.1019586814
  0
LWPOLYLINE
  5
DB
330
1F
100
AcDbEntity
  8
0
  6
Continuous
 62
     7
370
    25
100
AcDbPolyline
 90
       42
 70
   128
 43
0.0
 10
361.3407136221
 20
136.4595374242
 10
361.4278827878
 20
136.4163909058
 10
361.5254400981
 20
136.3814323294
 10
361.631096979
 20
136.3554804283
 10
361.7423794104
 20
136.3391434739
 10
361.8566774489
 20
136.3328040689
 10
361.9713116085
 20
136.3366112398
 10
362.0835950276
 20
136.3504761791
 10
362.1908977429
 20
136.3740728532
 10
362.2907025338
 20
136.4068483434
 10
362.380671304
 20
136.4480356194
 10
362.45869355
 20
136.4966681379
 10
362.5229432595
 20
136.5516066064
 10
362.5719126291
 20
136.6115620978
 10
362.6044542109
 20
136.6751313299
 10
362.6198051468
 20
136.740822821
 10
362.6176050813
 20
136.8070964278
 10
362.5979077516
 20
136.87240045
 10
362.5611715048
 20
136.9352026518
 10
362.5082603512
 20
136.9940322327
 10
362.4404134081
 20
137.0475096333
 10
362.3592206655
 20
137.0943812059
 10
362.2665850535
 20
137.1335484124
 10
362.1646781884
 20
137.1640933712
 10
362.0558908504
 20
137.1853001469
 10
361.9427676553
 20
137.1966717815
 10
361.827965962
 20
137.1979418523
 10
361.7141726321
 20
137.1890799456
 10
361.6040566146
 20
137.1702934821
 10
361.5001983505
 20
137.142024675
 10
361.4050318203
 20
137.1049341072
 10
361.3207897531
 20
137.059892215
 10
361.249443568
 20
137.0079543495
 10
361.1926675483
 20
136.9503388784
 10
361.151792481
 20
136.8883943394
 10
361.127776153
 20
136.823573893
 10
361.1211812249
 20
136.7573970013
 10
361.1321615326
 20
136.6914147564
 10
361.160461034
 20
136.6271727761
 10
361.20541697
 20
136.5661777489
 10
361.2659735619
 20
136.5098591124
 10
361.3407136221
 20
136.4595374242
  0
LINE
  5
DC
330
1F
100
AcDbEntity
  8
0
  6
Continuous
 62
     7
370
    25
100
AcDbLine
 10
365.8131633303
 20
70.1462445435
 30
0.0
 11
367.8991288743
 21
71.3504468198
 31
0.0
  0
LINE
  5
DD
330
1F
100
AcDbEntity
  8
0
  6
Continuous
 62
     7
370
    25
100
AcDbLine
 10
365.8131633303
 20
91.2129975972
 30
0.0
 11
365.8131633303
 21
70.1462445435
 31
0.0
  0
LINE
  5
DE
330
1F
100
AcDbEntity
  8
0
  6
Continuous
 62
     7
370
    25
100
AcDbLine
 10
365.8131633303
 20
91.2129975972
 30
0.0
 11
367.7766849037
 21
92.3465144739
 31
0.0
  0
LINE
  5
DF
330
1F
100
AcDbEntity
  8
0
  6
Continuous
 62
     7
370
    25
100
AcDbLine
 10
367.8991288743
 20
71.8935122299
 30
0.0
 11
367.8991288743
 21
71.3504468198
 31
0.0
  0
LINE
  5
E0
330
1F
100
AcDbEntity
  8
0
  6
Continuous
 62
     7
370
    25
100
AcDbLine
 10
334.7358200106
 20
109.1535660199
 30
0.0
 11
365.8131633303
 21
91.2129975972
 31
0.0
  0
LINE
  5
E1
330
1F
100
AcDbEntity
  8
0
  6
Continuous
 62
     7
370
    25
100
AcDbLine
 10
334.7358200106
 20
109.1535660199
 30
0.0
 11
335.0187086041
 21
109.3168741289
 31
0.0
  0
LINE
  5
E2
330
1F
100
AcDbEntity
  8
0
  6
Continuous
 62
     7
370
    25
100
AcDbLine
 10
367.6162402808
 20
92.5805079825
 30
0.0
 11
367.7766849037
 21
92.4878852732
 31
0.0
  0
ARC
  5
E3
330
1F
100
AcDbEntity
  8
0
  6
Continuous
 62
     7
370
    25
100
AcDbCircle
 10
362.4140003897
 20
90.9234254866
 30
0.0
 40
0.3074687438318032
100
AcDbArc
 50
304.9424765154
 51
6.3698574105
  0
LWPOLYLINE
  5
E4
330
1F
100
AcDbEntity
  8
0
  6
Continuous
 62
     7
370
    25
100
AcDbPolyline
 90
       15
 70
   128
 43
0.0
 10
361.9651550076
 20
91.7539467883
 10
362.0148356053
 20
91.7746834935
 10
362.0786659537
 20
91.7832194431
 10
362.1482187904
 20
91.7753414902
 10
362.2214953013
 20
91.7512763694
 10
362.2963860364
 20
91.7117162082
 10
362.3707372918
 20
91.6577996738
 10
362.4424101151
 20
91.5910766929
 10
362.5093424715
 20
91.513468914
 10
362.5696093039
 20
91.4272058335
 10
362.6214752156
 20
91.3347724814
 10
362.6634503158
 20
91.2388248627
 10
362.6943260433
 20
91.1421254735
 10
362.7132141535
 20
91.0474550912
 10
362.7195709519
 20
90.957537947
  0
ARC
  5
E5
330
1F
100
AcDbEntity
  8
0
  6
Continuous
 62
     7
370
    25
100
AcDbCircle
 10
338.4077329738
 20
104.7819507943
 30
0.0
 40
0.3074615732047591
100
AcDbArc
 50
304.9414747936
 51
6.3704173992
  0
LWPOLYLINE
  5
E6
330
1F
100
AcDbEntity
  8
0
  6
Continuous
 62
     7
370
    25
100
AcDbPolyline
 90
       15
 70
   128
 43
0.0
 10
337.9588790782
 20
105.6124748953
 10
338.0085607296
 20
105.6332109922
 10
338.0723900243
 20
105.64174755
 10
338.1419439148
 20
105.6338689889
 10
338.2152193719
 20
105.6098044764
 10
338.290110107
 20
105.5702443152
 10
338.3644624162
 20
105.5163271725
 10
338.4361352394
 20
105.4496041916
 10
338.5030675958
 20
105.3719964126
 10
338.5633333745
 20
105.2857339405
 10
338.61520034
 20
105.1932999801
 10
338.6571754401
 20
105.0973523614
 10
338.6880511676
 20
105.0006529722
 10
338.7069392778
 20
104.9059825899
 10
338.7132960762
 20
104.8160654457
  0
LINE
  5
E7
330
1F
100
AcDbEntity
  8
0
  6
Continuous
 62
     7
370
    25
100
AcDbLine
 10
365.8131633303
 20
70.1462445435
 30
0.0
 11
334.7358200106
 21
88.0868129662
 31
0.0
  0
LINE
  5
E8
330
1F
100
AcDbEntity
  8
0
  6
Continuous
 62
     7
370
    25
100
AcDbLine
 10
334.7358200106
 20
88.0868129662
 30
0.0
 11
334.7358200106
 21
104.4501139885
 31
0.0
  0
LINE
  5
E9
330
1F
100
AcDbEntity
  8
0
  6
Continuous
 62
     7
370
    25
100
AcDbLine
 10
334.7358200106
 20
105.6324731746
 30
0.0
 11
334.7358200106
 21
109.1535660199
 31
0.0
  0
SPLINE
  5
EA
330
1F
100
AcDbEntity
  8
0
  6
Continuous
 62
     7
370
    25
100
AcDbSpline
210
0.0
220
0.0
230
1.0
 70
     8
 71
     3
 72
    14
 73
    10
 74
     0
 42
0.000000001
 43
0.00000001
 40
0.0
 40
0.0
 40
0.0
 40
0.0
 40
0.0542718074559109
 40
0.2243337030106177
 40
0.4070054734829588
 40
0.5913139553738823
 40
0.7916044730179084
 40
0.9495235665599323
 40
0.9999999999999999
 40
0.9999999999999999
 40
0.9999999999999999
 40
0.9999999999999999
 10
361.3283098045688
 20
90.82945030894393
 30
0.0
 10
361.317026234201
 20
90.8362694927431
 30
0.0
 10
361.2703853493208
 20
90.86445673810839
 30
0.0
 10
361.1799987228007
 20
90.90875121808418
 30
0.0
 10
361.0636656053911
 20
90.96598335760926
 30
0.0
 10
360.962157722652
 20
91.02453196822876
 30
0.0
 10
360.9046105874427
 20
91.06815909388277
 30
0.0
 10
360.8759005989888
 20
91.0922041660946
 30
0.0
 10
360.8667234376537
 20
91.09628598790427
 30
0.0
 10
360.8645005954459
 20
91.09727466462813
 30
0.0
  0
SPLINE
  5
EB
330
1F
100
AcDbEntity
  8
0
  6
Continuous
 62
     7
370
    25
100
AcDbSpline
210
0.0
220
0.0
230
1.0
 70
     8
 71
     3
 72
    14
 73
    10
 74
     0
 42
0.000000001
 43
0.00000001
 40
0.0
 40
0.0
 40
0.0
 40
0.0
 40
0.0619766751365331
 40
0.232861367695786
 40
0.413825572879683
 40
0.5963319047937266
 40
0.7989326283709284
 40
0.9588562607709157
 40
1.0
 40
1.0
 40
1.0
 40
1.0
 10
336.8584490980639
 20
104.9555345122038
 30
0.0
 10
336.8612237582759
 20
104.954231604805
 30
0.0
 10
336.8716488281985
 20
104.9493362663861
 30
0.0
 10
336.9019392545684
 20
104.923724483441
 30
0.0
 10
336.9615010746104
 20
104.8796077187079
 30
0.0
 10
337.0636652716549
 20
104.8211386421439
 30
0.0
 10
337.1828934152403
 20
104.7627957250699
 30
0.0
 10
337.2722861818232
 20
104.7185667216829
 30
0.0
 10
337.3139140022175
 20
104.6931188350354
 30
0.0
 10
337.3224321629369
 20
104.687911519678
 30
0.0
  0
LWPOLYLINE
  5
EC
330
1F
100
AcDbEntity
  8
0
  6
Continuous
 62
     7
370
    25
100
AcDbPolyline
 90
       17
 70
   128
 43
0.0
 10
334.9479524748
 20
105.8060604439
 10
334.8669978619
 20
105.7521487877
 10
334.7879409108
 20
105.6851466493
 10
334.7126350292
 20
105.6066252755
 10
334.6428440627
 20
105.5184242126
 10
334.5802043628
 20
105.4226099408
 10
334.5261847471
 20
105.3214296425
 10
334.4820517283
 20
105.2172546261
 10
334.4488379044
 20
105.1125255766
 10
334.4273229919
 20
105.0096978032
 10
334.4180116994
 20
104.911183447
 10
334.4211221368
 20
104.8192888194
 10
334.4365805472
 20
104.7361699916
 10
334.4640244676
 20
104.663772566
 10
334.5028122122
 20
104.6037969977
 10
334.5520334093
 20
104.5576462741
 10
334.572983554
 20
104.5441184111
  0
LWPOLYLINE
  5
ED
330
1F
100
AcDbEntity
  8
0
  6
Continuous
 62
     7
370
    25
100
AcDbPolyline
 90
        7
 70
   128
 43
0.0
 10
335.3229224493
 20
105.8431918185
 10
335.3157005868
 20
105.8472028732
 10
335.2530619406
 20
105.8706954951
 10
335.1832709741
 20
105.8783176234
 10
335.1079640389
 20
105.8698920688
 10
335.0289070878
 20
105.8456169943
 10
334.9479524748
 20
105.8060604439
  0
LWPOLYLINE
  5
EE
330
1F
100
AcDbEntity
  8
0
  6
Continuous
 62
     7
370
    25
100
AcDbPolyline
 90
       42
 70
   128
 43
0.0
 10
361.9594314656
 20
88.9879537958
 10
361.9656460184
 20
88.8980579817
 10
361.9841463775
 20
88.8174459626
 10
362.0144973768
 20
88.748006769
 10
362.0559888418
 20
88.6913672498
 10
362.1076471804
 20
88.6488549604
 10
362.1682617242
 20
88.6214671333
 10
362.2364121246
 20
88.6098463409
 10
362.3105010159
 20
88.6142628494
 10
362.3887908944
 20
88.6346140074
 10
362.4694483721
 20
88.6704242412
 10
362.5505810554
 20
88.7208529607
 10
362.6302891753
 20
88.7847182806
 10
362.7067024654
 20
88.8605219603
 10
362.7780317918
 20
88.9464901599
 10
362.8426039247
 20
89.0406056804
 10
362.8989047386
 20
89.1406621048
 10
362.9456171445
 20
89.2443161141
 10
362.9816432169
 20
89.3491367637
 10
363.0061410726
 20
89.4526681416
 10
363.0185354071
 20
89.5524829042
 10
363.0185354071
 20
89.6462412866
 10
363.0061410726
 20
89.7317458552
 10
362.9816432169
 20
89.806992611
 10
362.9456171445
 20
89.870217226
 10
362.8989047386
 20
89.9199394563
 10
362.8426039247
 20
89.9549923445
 10
362.7780317918
 20
89.9745544672
 10
362.7067024654
 20
89.9781663627
 10
362.6302891753
 20
89.9657463525
 10
362.5505810554
 20
89.937582636
 10
362.4694483721
 20
89.8943375532
 10
362.3887908944
 20
89.8370214288
 10
362.3105010159
 20
89.7669822339
 10
362.2364121246
 20
89.6858575293
 10
362.1682617242
 20
89.5955507427
 10
362.1076471804
 20
89.498178853
 10
362.0559888418
 20
89.3960243322
 10
362.0144973768
 20
89.2914797872
 10
361.9841463775
 20
89.1869968589
 10
361.9656460184
 20
89.0850247798
 10
361.9594314656
 20
88.9879537958
  0
LINE
  5
EF
330
1F
100
AcDbEntity
  8
0
  6
Continuous
 62
     7
370
    25
100
AcDbLine
 10
369.4724412264
 20
68.8210794729
 30
0.0
 11
369.7199285745
 21
68.9639508779
 31
0.0
  0
LINE
  5
F0
330
1F
100
AcDbEntity
  8
0
  6
Continuous
 62
     7
370
    25
100
AcDbLine
 10
369.4724412264
 20
72.8629652912
 30
0.0
 11
369.4724412264
 21
68.8210794729
 31
0.0
  0
LINE
  5
F1
330
1F
100
AcDbEntity
  8
0
  6
Continuous
 62
     7
370
    25
100
AcDbLine
 10
369.7199285745
 20
73.0058366962
 30
0.0
 11
369.7199285745
 21
68.9639508779
 31
0.0
  0
LINE
  5
F2
330
1F
100
AcDbEntity
  8
0
  6
Continuous
 62
     7
370
    25
100
AcDbLine
 10
369.4724412264
 20
68.8210794729
 30
0.0
 11
366.495051924
 21
70.5398897313
 31
0.0
  0
LINE
  5
F3
330
1F
100
AcDbEntity
  8
0
  6
Continuous
 62
     7
370
    25
100
AcDbLine
 10
365.8131633303
 20
144.7780751197
 30
0.0
 11
365.8131633303
 21
152.7393477436
 31
0.0
  0
LINE
  5
F4
330
1F
100
AcDbEntity
  8
0
  6
Continuous
 62
     7
370
    25
100
AcDbLine
 10
365.8131633303
 20
152.7393477436
 30
0.0
 11
368.2526819277
 21
154.1476518533
 31
0.0
  0
LINE
  5
F5
330
1F
100
AcDbEntity
  8
0
  6
Continuous
 62
     7
370
    25
100
AcDbLine
 10
368.2526819277
 20
154.1476518533
 30
0.0
 11
368.2526819277
 21
146.1863792294
 31
0.0
  0
LINE
  5
F6
330
1F
100
AcDbEntity
  8
0
  6
Continuous
 62
     7
370
    25
100
AcDbLine
 10
365.8131633303
 20
144.7780751197
 30
0.0
 11
368.2526819277
 21
146.1863792294
 31
0.0
  0
LINE
  5
F7
330
1F
100
AcDbEntity
  8
0
  6
Continuous
 62
     7
370
    25
100
AcDbLine
 10
365.8131633303
 20
152.7393477436
 30
0.0
 11
334.7358200106
 21
170.6799161663
 31
0.0
  0
LINE
  5
F8
330
1F
100
AcDbEntity
  8
0
  6
Continuous
 62
     7
370
    25
100
AcDbLine
 10
334.7358200106
 20
170.6799161663
 30
0.0
 11
337.175338608
 21
172.088220276
 31
0.0
  0
LINE
  5
F9
330
1F
100
AcDbEntity
  8
0
  6
Continuous
 62
     7
370
    25
100
AcDbLine
 10
337.175338608
 20
172.088220276
 30
0.0
 11
368.2526819277
 21
154.1476518533
 31
0.0
  0
LINE
  5
FA
330
1F
100
AcDbEntity
  8
0
  6
Continuous
 62
     7
370
    25
100
AcDbLine
 10
334.7358200106
 20
162.7186435425
 30
0.0
 11
365.8131633303
 21
144.7780751197
 31
0.0
  0
LINE
  5
FB
330
1F
100
AcDbEntity
  8
0
  6
Continuous
 62
     7
370
    25
100
AcDbLine
 10
334.7358200106
 20
170.6799161663
 30
0.0
 11
334.7358200106
 21
162.7186435425
 31
0.0
  0
LINE
  5
FC
330
1F
100
AcDbEntity
  8
0
  6
Continuous
 62
     7
370
    25
100
AcDbLine
 10
365.4949651608
 20
145.3292105146
 30
0.0
 11
335.0540181801
 21
162.9023951508
 31
0.0
  0
LINE
  5
FD
330
1F
100
AcDbEntity
  8
0
  6
Continuous
 62
     7
370
    25
100
AcDbLine
 10
365.4949651608
 20
152.5555985687
 30
0.0
 11
365.4949651608
 21
145.3292105146
 31
0.0
  0
LINE
  5
FE
330
1F
100
AcDbEntity
  8
0
  6
Continuous
 62
     7
370
    25
100
AcDbLine
 10
335.0540181801
 20
170.1287832049
 30
0.0
 11
365.4949651608
 21
152.5555985687
 31
0.0
  0
LINE
  5
FF
330
1F
100
AcDbEntity
  8
0
  6
Continuous
 62
     7
370
    25
100
AcDbLine
 10
335.0540181801
 20
162.9023951508
 30
0.0
 11
335.0540181801
 21
170.1287832049
 31
0.0
  0
LINE
  5
100
330
1F
100
AcDbEntity
  8
0
  6
Continuous
 62
     7
370
    25
100
AcDbLine
 10
365.4949662144
 20
151.9431850837
 30
0.0
 11
335.0893741177
 21
169.4959597799
 31
0.0
  0
LINE
  5
101
330
1F
100
AcDbEntity
  8
0
  6
Continuous
 62
     7
370
    25
100
AcDbLine
 10
335.0893741177
 20
170.0999108909
 30
0.0
 11
335.0893741177
 21
169.4959597799
 31
0.0
  0
LINE
  5
102
330
1F
100
AcDbEntity
  8
0
  6
Continuous
 62
     7
370
    25
100
AcDbLine
 10
365.4949651608
 20
151.2739217317
 30
0.0
 11
335.1600849391
 21
168.7858753313
 31
0.0
  0
LINE
  5
103
330
1F
100
AcDbEntity
  8
0
  6
Continuous
 62
     7
370
    25
100
AcDbLine
 10
335.1600849391
 20
168.7858753313
 30
0.0
 11
335.1600849391
 21
169.4551362121
 31
0.0
  0
LINE
  5
104
330
1F
100
AcDbEntity
  8
0
  6
Continuous
 62
     7
370
    25
100
AcDbLine
 10
365.4949651608
 20
151.1674640771
 30
0.0
 11
335.0893741177
 21
168.720238165
 31
0.0
  0
LINE
  5
105
330
1F
100
AcDbEntity
  8
0
  6
Continuous
 62
     7
370
    25
100
AcDbLine
 10
365.4949662144
 20
150.5142400257
 30
0.0
 11
335.0893741177
 21
168.0670147218
 31
0.0
  0
LINE
  5
106
330
1F
100
AcDbEntity
  8
0
  6
Continuous
 62
     7
370
    25
100
AcDbLine
 10
335.0893741177
 20
168.6709609659
 30
0.0
 11
335.0893741177
 21
168.0670147218
 31
0.0
  0
LINE
  5
107
330
1F
100
AcDbEntity
  8
0
  6
Continuous
 62
     7
370
    25
100
AcDbLine
 10
365.4949651608
 20
149.8449766736
 30
0.0
 11
335.1600849391
 21
167.3569302732
 31
0.0
  0
LINE
  5
108
330
1F
100
AcDbEntity
  8
0
  6
Continuous
 62
     7
370
    25
100
AcDbLine
 10
335.1600849391
 20
167.3569302732
 30
0.0
 11
335.1600849391
 21
168.0261911541
 31
0.0
  0
LINE
  5
109
330
1F
100
AcDbEntity
  8
0
  6
Continuous
 62
     7
370
    25
100
AcDbLine
 10
365.4949651608
 20
149.738519019
 30
0.0
 11
335.0893741177
 21
167.2912931069
 31
0.0
  0
LINE
  5
10A
330
1F
100
AcDbEntity
  8
0
  6
Continuous
 62
     7
370
    25
100
AcDbLine
 10
365.4949662144
 20
149.0852901007
 30
0.0
 11
335.0893741177
 21
166.6380647968
 31
0.0
  0
LINE
  5
10B
330
1F
100
AcDbEntity
  8
0
  6
Continuous
 62
     7
370
    25
100
AcDbLine
 10
335.0893741177
 20
167.2420159078
 30
0.0
 11
335.0893741177
 21
166.6380647968
 31
0.0
  0
LINE
  5
10C
330
1F
100
AcDbEntity
  8
0
  6
Continuous
 62
     7
370
    25
100
AcDbLine
 10
365.4949651608
 20
148.4160316156
 30
0.0
 11
335.1600849391
 21
165.9279852152
 31
0.0
  0
LINE
  5
10D
330
1F
100
AcDbEntity
  8
0
  6
Continuous
 62
     7
370
    25
100
AcDbLine
 10
335.1600849391
 20
165.9279852152
 30
0.0
 11
335.1600849391
 21
166.597246096
 31
0.0
  0
LINE
  5
10E
330
1F
100
AcDbEntity
  8
0
  6
Continuous
 62
     7
370
    25
100
AcDbLine
 10
365.4949651608
 20
148.309573961
 30
0.0
 11
335.0893741177
 21
165.8623480489
 31
0.0
  0
LINE
  5
10F
330
1F
100
AcDbEntity
  8
0
  6
Continuous
 62
     7
370
    25
100
AcDbLine
 10
365.4949662144
 20
147.6563450426
 30
0.0
 11
335.0893741177
 21
165.2091197388
 31
0.0
  0
LINE
  5
110
330
1F
100
AcDbEntity
  8
0
  6
Continuous
 62
     7
370
    25
100
AcDbLine
 10
335.0893741177
 20
165.8130708498
 30
0.0
 11
335.0893741177
 21
165.2091197388
 31
0.0
  0
LINE
  5
111
330
1F
100
AcDbEntity
  8
0
  6
Continuous
 62
     7
370
    25
100
AcDbLine
 10
365.4949651608
 20
146.9870816906
 30
0.0
 11
335.1600849391
 21
164.4990352901
 31
0.0
  0
LINE
  5
112
330
1F
100
AcDbEntity
  8
0
  6
Continuous
 62
     7
370
    25
100
AcDbLine
 10
335.1600849391
 20
164.4990352901
 30
0.0
 11
335.1600849391
 21
165.1683010379
 31
0.0
  0
LINE
  5
113
330
1F
100
AcDbEntity
  8
0
  6
Continuous
 62
     7
370
    25
100
AcDbLine
 10
365.4949651608
 20
146.8806264694
 30
0.0
 11
335.0893741177
 21
164.4334005573
 31
0.0
  0
LINE
  5
114
330
1F
100
AcDbEntity
  8
0
  6
Continuous
 62
     7
370
    25
100
AcDbLine
 10
365.4949662144
 20
146.2273975511
 30
0.0
 11
335.0893741177
 21
163.7801722472
 31
0.0
  0
LINE
  5
115
330
1F
100
AcDbEntity
  8
0
  6
Continuous
 62
     7
370
    25
100
AcDbLine
 10
335.0893741177
 20
164.3841233582
 30
0.0
 11
335.0893741177
 21
163.7801722472
 31
0.0
  0
LINE
  5
116
330
1F
100
AcDbEntity
  8
0
  6
Continuous
 62
     7
370
    25
100
AcDbLine
 10
365.4949651608
 20
145.5581366325
 30
0.0
 11
335.1600849391
 21
163.0700902321
 31
0.0
  0
LINE
  5
117
330
1F
100
AcDbEntity
  8
0
  6
Continuous
 62
     7
370
    25
100
AcDbLine
 10
335.1600849391
 20
163.0700902321
 30
0.0
 11
335.1600849391
 21
163.7393511129
 31
0.0
  0
LINE
  5
118
330
1F
100
AcDbEntity
  8
0
  6
Continuous
 62
     7
370
    25
100
AcDbLine
 10
335.0893741177
 20
162.9228056991
 30
0.0
 11
335.0540181801
 21
162.9023951508
 31
0.0
  0
LINE
  5
119
330
1F
100
AcDbEntity
  8
0
  6
Continuous
 62
     7
370
    25
100
AcDbLine
 10
335.0893741177
 20
162.9228056991
 30
0.0
 11
365.4949662144
 21
145.3700310029
 31
0.0
  0
LINE
  5
11A
330
1F
100
AcDbEntity
  8
0
  6
Continuous
 62
     7
370
    25
100
AcDbLine
 10
335.0894204792
 20
162.9227781664
 30
0.0
 11
335.2523422831
 21
163.0168309218
 31
0.0
  0
LINE
  5
11B
330
1F
100
AcDbEntity
  8
0
  6
Continuous
 62
     7
370
    25
100
AcDbLine
 10
336.3977756145
 20
163.678075509
 30
0.0
 11
336.489980275
 21
163.7313041265
 31
0.0
  0
LINE
  5
11C
330
1F
100
AcDbEntity
  8
0
  6
Continuous
 62
     7
370
    25
100
AcDbLine
 10
335.0893741177
 20
169.4959597799
 30
0.0
 11
335.0893741177
 21
168.6709609659
 31
0.0
  0
LINE
  5
11D
330
1F
100
AcDbEntity
  8
0
  6
Continuous
 62
     7
370
    25
100
AcDbLine
 10
335.0893741177
 20
168.0670147218
 30
0.0
 11
335.0893741177
 21
167.2420159078
 31
0.0
  0
LINE
  5
11E
330
1F
100
AcDbEntity
  8
0
  6
Continuous
 62
     7
370
    25
100
AcDbLine
 10
335.0893741177
 20
166.6380647968
 30
0.0
 11
335.0893741177
 21
165.8130708498
 31
0.0
  0
LINE
  5
11F
330
1F
100
AcDbEntity
  8
0
  6
Continuous
 62
     7
370
    25
100
AcDbLine
 10
335.0893741177
 20
165.2091197388
 30
0.0
 11
335.0893741177
 21
164.3841233582
 31
0.0
  0
LINE
  5
120
330
1F
100
AcDbEntity
  8
0
  6
Continuous
 62
     7
370
    25
100
AcDbLine
 10
335.0893741177
 20
163.7801722472
 30
0.0
 11
335.0893741177
 21
162.9228056991
 31
0.0
  0
LINE
  5
121
330
1F
100
AcDbEntity
  8
0
  6
Continuous
 62
     7
370
    25
100
AcDbLine
 10
335.0893741177
 20
170.1083696717
 30
0.0
 11
335.0893741177
 21
170.0999108909
 31
0.0
  0
LINE
  5
122
330
1F
100
AcDbEntity
  8
0
  6
Continuous
 62
     7
370
    25
100
AcDbLine
 10
337.2106945455
 20
164.6377344259
 30
0.0
 11
337.2106945455
 21
164.7441919302
 31
0.0
  0
LINE
  5
123
330
1F
100
AcDbEntity
  8
0
  6
Continuous
 62
     7
370
    25
100
AcDbLine
 10
337.2106945455
 20
166.0666794839
 30
0.0
 11
337.2106945455
 21
166.1731394217
 31
0.0
  0
LINE
  5
124
330
1F
100
AcDbEntity
  8
0
  6
Continuous
 62
     7
370
    25
100
AcDbLine
 10
337.2106945455
 20
167.495624542
 30
0.0
 11
337.2106945455
 21
167.6020844798
 31
0.0
  0
LINE
  5
125
330
1F
100
AcDbEntity
  8
0
  6
Continuous
 62
     7
370
    25
100
AcDbLine
 10
386.7612017651
 20
158.3610653867
 30
0.0
 11
388.1754150325
 21
157.5446574452
 31
0.0
  0
LINE
  5
126
330
1F
100
AcDbEntity
  8
0
  6
Continuous
 62
     7
370
    25
100
AcDbLine
 10
388.1754150325
 20
157.5446574452
 30
0.0
 11
368.3764250749
 21
146.114943831
 31
0.0
  0
LINE
  5
127
330
1F
100
AcDbEntity
  8
0
  6
Continuous
 62
     7
370
    25
100
AcDbLine
 10
388.1754150325
 20
83.6599615834
 30
0.0
 11
368.5885575392
 21
72.3527094341
 31
0.0
  0
LINE
  5
128
330
1F
100
AcDbEntity
  8
0
  6
Continuous
 62
     7
370
    25
100
AcDbLine
 10
368.3764250749
 20
146.114943831
 30
0.0
 11
368.3764250749
 21
145.9108088227
 31
0.0
  0
LINE
  5
129
330
1F
100
AcDbEntity
  8
0
  6
Continuous
 62
     7
370
    25
100
AcDbLine
 10
388.1754150325
 20
83.6599615834
 30
0.0
 11
388.1754150325
 21
157.5446574452
 31
0.0
  0
LINE
  5
12A
330
1F
100
AcDbEntity
  8
0
  6
Continuous
 62
     7
370
    25
100
AcDbLine
 10
369.7906388691
 20
73.0384918852
 30
0.0
 11
369.7835676816
 21
73.0425739949
 31
0.0
  0
LINE
  5
12B
330
1F
100
AcDbEntity
  8
0
  6
Continuous
 62
     7
370
    25
100
AcDbLine
 10
369.7906388691
 20
69.6580116703
 30
0.0
 11
369.7906388691
 21
73.0384918852
 31
0.0
  0
LINE
  5
12C
330
1F
100
AcDbEntity
  8
0
  6
Continuous
 62
     7
370
    25
100
AcDbLine
 10
369.7906388691
 20
69.6580116703
 30
0.0
 11
369.7199291014
 21
69.6988315503
 31
0.0
  0
LINE
  5
12D
330
1F
100
AcDbEntity
  8
0
  6
Continuous
 62
     7
370
    25
100
AcDbLine
 10
385.7146833994
 20
82.2312471192
 30
0.0
 11
369.7906388691
 21
73.0384918852
 31
0.0
  0
LINE
  5
12E
330
1F
100
AcDbEntity
  8
0
  6
Continuous
 62
     7
370
    25
100
AcDbLine
 10
385.7146833994
 20
82.2312471192
 30
0.0
 11
385.7146833994
 21
78.515985588
 31
0.0
  0
LINE
  5
12F
330
1F
100
AcDbEntity
  8
0
  6
Continuous
 62
     7
370
    25
100
AcDbLine
 10
385.7146833994
 20
78.515985588
 30
0.0
 11
382.1791494407
 21
76.4749652781
 31
0.0
  0
LINE
  5
130
330
1F
100
AcDbEntity
  8
0
  6
Continuous
 62
     7
370
    25
100
AcDbLine
 10
382.1791494407
 20
76.4749652781
 30
0.0
 11
382.1791494407
 21
76.2381680844
 31
0.0
  0
LINE
  5
131
330
1F
100
AcDbEntity
  8
0
  6
Continuous
 62
     7
370
    25
100
AcDbLine
 10
371.0952508374
 20
69.8395696187
 30
0.0
 11
382.1791494407
 21
76.2381680844
 31
0.0
  0
LINE
  5
132
330
1F
100
AcDbEntity
  8
0
  6
Continuous
 62
     7
370
    25
100
AcDbLine
 10
371.0952508374
 20
69.8395696187
 30
0.0
 11
370.6002761412
 21
70.1254053187
 31
0.0
  0
LINE
  5
133
330
1F
100
AcDbEntity
  8
0
  6
Continuous
 62
     7
370
    25
100
AcDbLine
 10
370.6002761412
 20
70.1254053187
 30
0.0
 11
369.7906388691
 21
69.6580116703
 31
0.0
  0
LWPOLYLINE
  5
134
330
1F
100
AcDbEntity
  8
0
  6
Continuous
 62
     7
370
    25
100
AcDbPolyline
 90
       11
 70
   128
 43
0.0
 10
378.8062501277
 20
77.3040714702
 10
378.7625485215
 20
77.270849084
 10
378.7231247545
 20
77.2248942845
 10
378.6918378647
 20
77.1707028513
 10
378.6717504462
 20
77.1135834977
 10
378.6648287812
 20
77.0591221713
 10
378.6717504462
 20
77.0126524293
 10
378.6918378647
 20
76.9787230819
 10
378.7231247545
 20
76.9606571562
 10
378.7625485215
 20
76.9602176357
 10
378.8062501277
 20
76.9774544836
  0
LINE
  5
135
330
1F
100
AcDbEntity
  8
0
  6
Continuous
 62
     7
370
    25
100
AcDbLine
 10
378.8062501277
 20
76.9774544836
 30
0.0
 11
381.3518344633
 21
78.4469890406
 31
0.0
  0
LWPOLYLINE
  5
136
330
1F
100
AcDbEntity
  8
0
  6
Continuous
 62
     7
370
    25
100
AcDbPolyline
 90
       11
 70
   128
 43
0.0
 10
381.3518344633
 20
78.4469890406
 10
381.3955362672
 20
78.4802091074
 10
381.4349599024
 20
78.5261662643
 10
381.4662468252
 20
78.580355283
 10
381.4863342766
 20
78.6374770892
 10
381.4932558428
 20
78.6919383585
 10
381.4863342766
 20
78.7384081576
 10
381.4662468252
 20
78.7723350525
 10
381.4349599024
 20
78.7904033926
 10
381.3955362672
 20
78.7908405557
 10
381.3518344633
 20
78.7736060273
  0
LINE
  5
137
330
1F
100
AcDbEntity
  8
0
  6
Continuous
 62
     7
370
    25
100
AcDbLine
 10
381.3518344633
 20
78.7736060273
 30
0.0
 11
378.8062501277
 21
77.3040714702
 31
0.0
  0
LWPOLYLINE
  5
138
330
1F
100
AcDbEntity
  8
0
  6
Continuous
 62
     7
370
    25
100
AcDbPolyline
 90
       11
 70
   128
 43
0.0
 10
372.9726189841
 20
73.1198454275
 10
372.9289174437
 20
73.0866255128
 10
372.8894938084
 20
73.0406707893
 10
372.8582071491
 20
72.9864794892
 10
372.8381194343
 20
72.929357531
 10
372.8311978681
 20
72.8748962617
 10
372.8381194343
 20
72.8284288961
 10
372.8582071491
 20
72.7944997197
 10
372.8894938084
 20
72.7764312276
 10
372.9289174437
 20
72.7759940645
 10
372.9726189841
 20
72.7932308743
  0
LINE
  5
139
330
1F
100
AcDbEntity
  8
0
  6
Continuous
 62
     7
370
    25
100
AcDbLine
 10
372.9726189841
 20
72.7932308743
 30
0.0
 11
375.5182035502
 21
74.2627655644
 31
0.0
  0
LWPOLYLINE
  5
13A
330
1F
100
AcDbEntity
  8
0
  6
Continuous
 62
     7
370
    25
100
AcDbPolyline
 90
       11
 70
   128
 43
0.0
 10
375.5182035502
 20
74.2627655644
 10
375.5619050906
 20
74.2959854791
 10
375.6013289892
 20
74.3419403547
 10
375.632615912
 20
74.3961318068
 10
375.6527033634
 20
74.453253613
 10
375.6596249296
 20
74.5077124488
 10
375.6527033634
 20
74.5541822479
 10
375.632615912
 20
74.5881115763
 10
375.6013289892
 20
74.6061799164
 10
375.5619050906
 20
74.6066169274
 10
375.5182035502
 20
74.5893801176
  0
LINE
  5
13B
330
1F
100
AcDbEntity
  8
0
  6
Continuous
 62
     7
370
    25
100
AcDbLine
 10
375.5182035502
 20
74.5893801176
 30
0.0
 11
372.9726189841
 21
73.1198454275
 31
0.0
  0
LWPOLYLINE
  5
13C
330
1F
100
AcDbEntity
  8
0
  6
Continuous
 62
     7
370
    25
100
AcDbPolyline
 90
       11
 70
   128
 43
0.0
 10
376.8617065229
 20
75.3649678749
 10
376.8180048508
 20
75.3317478842
 10
376.7785810839
 20
75.2857930846
 10
376.7472941611
 20
75.2316016325
 10
376.7272068414
 20
75.1744799024
 10
376.7202851435
 20
75.120018557
 10
376.7272068414
 20
75.0735512674
 10
376.7472941611
 20
75.039621863
 10
376.7785810839
 20
75.0215535229
 10
376.8180048508
 20
75.0211164359
 10
376.8617065229
 20
75.0383533217
  0
LINE
  5
13D
330
1F
100
AcDbEntity
  8
0
  6
Continuous
 62
     7
370
    25
100
AcDbLine
 10
376.8617065229
 20
75.0383533217
 30
0.0
 11
379.4072909573
 21
76.5078879358
 31
0.0
  0
LWPOLYLINE
  5
13E
330
1F
100
AcDbEntity
  8
0
  6
Continuous
 62
     7
370
    25
100
AcDbPolyline
 90
       11
 70
   128
 43
0.0
 10
379.4072909573
 20
76.5078879358
 10
379.4509924977
 20
76.5411078505
 10
379.4904162647
 20
76.58706265
 10
379.5217031874
 20
76.6412541022
 10
379.5417906388
 20
76.6983759083
 10
379.548712205
 20
76.7528347442
 10
379.5417906388
 20
76.7993045432
 10
379.5217031874
 20
76.8332338716
 10
379.4904162647
 20
76.8513022117
 10
379.4509924977
 20
76.8517392988
 10
379.4072909573
 20
76.834502489
  0
LINE
  5
13F
330
1F
100
AcDbEntity
  8
0
  6
Continuous
 62
     7
370
    25
100
AcDbLine
 10
379.4072909573
 20
76.834502489
 30
0.0
 11
376.8617065229
 21
75.3649678749
 31
0.0
  0
LWPOLYLINE
  5
140
330
1F
100
AcDbEntity
  8
0
  6
Continuous
 62
     7
370
    25
100
AcDbPolyline
 90
       11
 70
   128
 43
0.0
 10
380.7507937984
 20
77.6100901703
 10
380.707092258
 20
77.5768702556
 10
380.6676683593
 20
77.53091538
 10
380.6363814366
 20
77.4767239278
 10
380.6162939852
 20
77.4196021217
 10
380.609372419
 20
77.3651408524
 10
380.6162939852
 20
77.3186734868
 10
380.6363814366
 20
77.2847441584
 10
380.6676683593
 20
77.2666758183
 10
380.707092258
 20
77.2662388072
 10
380.7507937984
 20
77.2834756171
  0
LINE
  5
141
330
1F
100
AcDbEntity
  8
0
  6
Continuous
 62
     7
370
    25
100
AcDbLine
 10
380.7507937984
 20
77.2834756171
 30
0.0
 11
383.2963783645
 21
78.7530103072
 31
0.0
  0
LWPOLYLINE
  5
142
330
1F
100
AcDbEntity
  8
0
  6
Continuous
 62
     7
370
    25
100
AcDbPolyline
 90
       11
 70
   128
 43
0.0
 10
383.2963783645
 20
78.7530103072
 10
383.3400799049
 20
78.7862302219
 10
383.3795035401
 20
78.8321849453
 10
383.4107907263
 20
78.8863765496
 10
383.4308779143
 20
78.9434982037
 10
383.4377994805
 20
78.9979570395
 10
383.4308779143
 20
79.0444268386
 10
383.4107907263
 20
79.078356319
 10
383.3795035401
 20
79.0964245071
 10
383.3400799049
 20
79.0968616702
 10
383.2963783645
 20
79.0796248603
  0
LINE
  5
143
330
1F
100
AcDbEntity
  8
0
  6
Continuous
 62
     7
370
    25
100
AcDbLine
 10
383.2963783645
 20
79.0796248603
 30
0.0
 11
380.7507937984
 21
77.6100901703
 31
0.0
  0
LWPOLYLINE
  5
144
330
1F
100
AcDbEntity
  8
0
  6
Continuous
 62
     7
370
    25
100
AcDbPolyline
 90
       11
 70
   128
 43
0.0
 10
371.0280756098
 20
72.8138268985
 10
370.9843740694
 20
72.7806045504
 10
370.9449499073
 20
72.7346495227
 10
370.913663248
 20
72.6804582226
 10
370.89357606
 20
72.623339002
 10
370.8866539669
 20
72.5688774286
 10
370.89357606
 20
72.5224079336
 10
370.913663248
 20
72.4884784532
 10
370.9449499073
 20
72.4704123945
 10
370.9843740694
 20
72.469973102
 10
371.0280756098
 20
72.4872099119
  0
LINE
  5
145
330
1F
100
AcDbEntity
  8
0
  6
Continuous
 62
     7
370
    25
100
AcDbLine
 10
371.0280756098
 20
72.4872099119
 30
0.0
 11
373.5736599124
 21
73.9567444499
 31
0.0
  0
LWPOLYLINE
  5
146
330
1F
100
AcDbEntity
  8
0
  6
Continuous
 62
     7
370
    25
100
AcDbPolyline
 90
       11
 70
   128
 43
0.0
 10
373.5736599124
 20
73.9567444499
 10
373.6173614528
 20
73.9899643646
 10
373.6567850881
 20
74.0359215216
 10
373.6880722742
 20
74.0901106923
 10
373.7081594622
 20
74.1472323464
 10
373.7150815553
 20
74.2016939199
 10
373.7081594622
 20
74.2481634148
 10
373.6880722742
 20
74.2820904618
 10
373.6567850881
 20
74.3001586498
 10
373.6173614528
 20
74.3005958129
 10
373.5736599124
 20
74.2833614366
  0
LINE
  5
147
330
1F
100
AcDbEntity
  8
0
  6
Continuous
 62
     7
370
    25
100
AcDbLine
 10
373.5736599124
 20
74.2833614366
 30
0.0
 11
371.0280756098
 21
72.8138268985
 31
0.0
  0
LWPOLYLINE
  5
148
330
1F
100
AcDbEntity
  8
0
  6
Continuous
 62
     7
370
    25
100
AcDbPolyline
 90
       11
 70
   128
 43
0.0
 10
374.9171628852
 20
75.0589491939
 10
374.8734613448
 20
75.0257268457
 10
374.8340374461
 20
74.9797719701
 10
374.8027505234
 20
74.925580518
 10
374.782663072
 20
74.8684611453
 10
374.7757415058
 20
74.813999876
 10
374.782663072
 20
74.7675300769
 10
374.8027505234
 20
74.7336007485
 10
374.8340374461
 20
74.7155348419
 10
374.8734613448
 20
74.7150953974
 10
374.9171628852
 20
74.7323322072
  0
LINE
  5
149
330
1F
100
AcDbEntity
  8
0
  6
Continuous
 62
     7
370
    25
100
AcDbLine
 10
374.9171628852
 20
74.7323322072
 30
0.0
 11
377.4627472538
 21
76.2018667833
 31
0.0
  0
LWPOLYLINE
  5
14A
330
1F
100
AcDbEntity
  8
0
  6
Continuous
 62
     7
370
    25
100
AcDbPolyline
 90
       11
 70
   128
 43
0.0
 10
377.4627472538
 20
76.2018667833
 10
377.50644886
 20
76.235086736
 10
377.545872627
 20
76.281043969
 10
377.5771595497
 20
76.3352329877
 10
377.5972469353
 20
76.3923547558
 10
377.6041686332
 20
76.4468161012
 10
377.5972469353
 20
76.4932858242
 10
377.5771595497
 20
76.5272127571
 10
377.545872627
 20
76.5452810972
 10
377.50644886
 20
76.5457181843
 10
377.4627472538
 20
76.5284837699
  0
LINE
  5
14B
330
1F
100
AcDbEntity
  8
0
  6
Continuous
 62
     7
370
    25
100
AcDbLine
 10
377.4627472538
 20
76.5284837699
 30
0.0
 11
374.9171628852
 21
75.0589491939
 31
0.0
  0
LINE
  5
14C
330
1F
100
AcDbEntity
  8
0
  6
Continuous
 62
     7
370
    25
100
AcDbLine
 10
385.7076122119
 20
82.2353292289
 30
0.0
 11
369.7835676816
 21
73.0425739949
 31
0.0
  0
LINE
  5
14D
330
1F
100
AcDbEntity
  8
0
  6
Continuous
 62
     7
370
    25
100
AcDbLine
 10
385.7146833994
 20
82.2312471192
 30
0.0
 11
385.7076122119
 21
82.2353292289
 31
0.0
  0
LINE
  5
14E
330
1F
100
AcDbEntity
  8
0
  6
Continuous
 62
     7
370
    25
100
AcDbLine
 10
371.0952508374
 20
69.8395696187
 30
0.0
 11
370.6001960622
 21
70.1253586573
 31
0.0
  0
LWPOLYLINE
  5
14F
330
1F
100
AcDbEntity
  8
0
  6
Continuous
 62
     7
370
    25
100
AcDbPolyline
 90
        3
 70
   128
 43
0.0
 10
370.0643173226
 20
69.8160027171
 10
370.0850862359
 20
69.7999911879
 10
370.1301749344
 20
69.7573112138
  0
ARC
  5
150
330
1F
100
AcDbEntity
  8
0
  6
Continuous
 62
     7
370
    25
100
AcDbCircle
 10
369.6347347504
 20
69.8149488769
 30
0.0
 40
0.2059213922337369
100
AcDbArc
 50
294.4385814849
 51
313.6519802193
  0
LINE
  5
151
330
1F
100
AcDbEntity
  8
0
  6
Continuous
 62
     7
370
    25
100
AcDbLine
 10
368.6232328051
 20
69.2912721536
 30
0.0
 11
368.6228650739
 21
69.3064710321
 31
0.0
  0
LINE
  5
152
330
1F
100
AcDbEntity
  8
0
  6
Continuous
 62
     7
370
    25
100
AcDbLine
 10
368.6232328051
 20
69.213994523
 30
0.0
 11
368.6228650739
 21
69.2291934015
 31
0.0
  0
LWPOLYLINE
  5
153
330
1F
100
AcDbEntity
  8
0
  6
Continuous
 62
     7
370
    25
100
AcDbPolyline
 90
        8
 70
   128
 43
0.0
 10
369.9800568162
 20
69.6060277073
 10
369.9794878337
 20
69.5934681185
 10
369.9658928409
 20
69.5439180226
 10
369.9347494809
 20
69.4970817297
 10
369.8874180432
 20
69.4550072898
 10
369.825967938
 20
69.4195328992
 10
369.7530855003
 20
69.3922093459
 10
369.7199280477
 20
69.3834912955
  0
LWPOLYLINE
  5
154
330
1F
100
AcDbEntity
  8
0
  6
Continuous
 62
     7
370
    25
100
AcDbPolyline
 90
        8
 70
   128
 43
0.0
 10
369.9771750254
 20
69.7656966031
 10
369.9794878337
 20
69.7249296427
 10
369.9658928409
 20
69.6753795468
 10
369.9347494809
 20
69.6285432539
 10
369.8874180432
 20
69.586468814
 10
369.825967938
 20
69.5509944234
 10
369.7530855003
 20
69.5236708701
 10
369.7199280477
 20
69.5149528197
  0
LWPOLYLINE
  5
155
330
1F
100
AcDbEntity
  8
0
  6
Continuous
 62
     7
370
    25
100
AcDbPolyline
 90
       10
 70
   128
 43
0.0
 10
382.4058070261
 20
76.6058116085
 10
382.448112979
 20
76.6004728395
 10
382.5269212636
 20
76.6038248656
 10
382.6101655041
 20
76.6232897715
 10
382.6961076698
 20
76.6584555495
 10
382.7829559926
 20
76.7085920191
 10
382.8688981583
 20
76.7726529534
 10
382.9521423988
 20
76.8492998018
 10
383.0309506835
 20
76.9369378845
 10
383.0732566363
 20
76.9911220669
  0
LWPOLYLINE
  5
156
330
1F
100
AcDbEntity
  8
0
  6
Continuous
 62
     7
370
    25
100
AcDbPolyline
 90
       16
 70
   128
 43
0.0
 10
382.1791497042
 20
76.2632571198
 10
382.1869837496
 20
76.2604499724
 10
382.2756370113
 20
76.2394781254
 10
382.3712750594
 20
76.2356209049
 10
382.4724575255
 20
76.2489350247
 10
382.5776618546
 20
76.2792229072
 10
382.6853027983
 20
76.3260220355
 10
382.7937608641
 20
76.3886335442
 10
382.9014018079
 20
76.4661140042
 10
383.0066061369
 20
76.5572924545
 10
383.107788603
 20
76.6608011234
 10
383.2034266511
 20
76.7750796838
 10
383.2920799128
 20
76.8984084081
 10
383.3724139134
 20
77.0289267207
 10
383.4432179847
 20
77.1646751746
 10
383.4682621689
 20
77.2191539071
  0
ARC
  5
157
330
1F
100
AcDbEntity
  8
0
  6
Continuous
 62
     7
370
    25
100
AcDbCircle
 10
382.2834664232
 20
77.4251725143
 30
0.0
 40
0.8010085998958084
100
AcDbArc
 50
284.2043863556
 51
315.7902371117
  0
LINE
  5
158
330
1F
100
AcDbEntity
  8
0
  6
Continuous
 62
     7
370
    25
100
AcDbLine
 10
368.4471358964
 20
145.8495783944
 30
0.0
 11
368.5885575392
 21
145.7679374178
 31
0.0
  0
LINE
  5
159
330
1F
100
AcDbEntity
  8
0
  6
Continuous
 62
     7
370
    25
100
AcDbLine
 10
368.5885575392
 20
145.7679374178
 30
0.0
 11
367.8886659191
 21
145.3638985857
 31
0.0
  0
LINE
  5
15A
330
1F
100
AcDbEntity
  8
0
  6
Continuous
 62
     7
370
    25
100
AcDbLine
 10
367.8886659191
 20
145.3638985857
 30
0.0
 11
367.8214912183
 21
145.4026777151
 31
0.0
  0
ARC
  5
15B
330
1F
100
AcDbEntity
  8
0
  6
Continuous
 62
     7
370
    25
100
AcDbCircle
 10
367.8144200308
 20
145.389029198
 30
0.0
 40
0.0153715227392786
100
AcDbArc
 50
62.6116874874
 51
117.3883125126
  0
LINE
  5
15C
330
1F
100
AcDbEntity
  8
0
  6
Continuous
 62
     7
370
    25
100
AcDbLine
 10
367.8073488433
 20
145.4026777151
 30
0.0
 11
367.8027411391
 21
145.4000177441
 31
0.0
  0
ARC
  5
15D
330
1F
100
AcDbEntity
  8
0
  6
Continuous
 62
     7
370
    25
100
AcDbCircle
 10
367.7957155618
 20
145.4133728626
 30
0.0
 40
0.0150903256090078
100
AcDbArc
 50
238.8781790204
 51
297.7470080752
  0
ARC
  5
15E
330
1F
100
AcDbEntity
  8
0
  6
Continuous
 62
     7
370
    25
100
AcDbCircle
 10
367.7970753548
 20
145.4183617255
 30
0.0
 40
0.0201137611232638
100
AcDbArc
 50
134.0723523161
 51
242.9107248601
  0
ARC
  5
15F
330
1F
100
AcDbEntity
  8
0
  6
Continuous
 62
     7
370
    25
100
AcDbCircle
 10
367.8051956755
 20
145.4044077556
 30
0.0
 40
0.0359962093081492
100
AcDbArc
 50
68.0182063983
 51
127.897648465
  0
ARC
  5
160
330
1F
100
AcDbEntity
  8
0
  6
Continuous
 62
     7
370
    25
100
AcDbCircle
 10
367.8459584603
 20
145.5111769864
 30
0.0
 40
0.0782991520784894
100
AcDbArc
 50
249.6030621663
 51
297.0732811112
  0
LINE
  5
161
330
1F
100
AcDbEntity
  8
0
  6
Continuous
 62
     7
370
    25
100
AcDbLine
 10
367.8815947316
 20
145.4414574527
 30
0.0
 11
368.4117831198
 21
145.7475286943
 31
0.0
  0
ARC
  5
162
330
1F
100
AcDbEntity
  8
0
  6
Continuous
 62
     7
370
    25
100
AcDbCircle
 10
368.4037427189
 20
145.7678276019
 30
0.0
 40
0.0218333162145454
100
AcDbArc
 50
291.6085271977
 51
70.024181289
  0
LINE
  5
163
330
1F
100
AcDbEntity
  8
0
  6
Continuous
 62
     7
370
    25
100
AcDbLine
 10
368.4112014933
 20
145.7883473578
 30
0.0
 11
367.9871978753
 21
146.0331194364
 31
0.0
  0
LINE
  5
164
330
1F
100
AcDbEntity
  8
0
  6
Continuous
 62
     7
370
    25
100
AcDbLine
 10
368.0228435724
 20
146.0536972593
 30
0.0
 11
368.1041954194
 21
146.0067338377
 31
0.0
  0
LINE
  5
165
330
1F
100
AcDbEntity
  8
0
  6
Continuous
 62
     7
370
    25
100
AcDbLine
 10
368.1041954194
 20
146.0067338377
 30
0.0
 11
368.0971347686
 21
146.0026578107
 31
0.0
  0
LINE
  5
166
330
1F
100
AcDbEntity
  8
0
  6
Continuous
 62
     7
370
    25
100
AcDbLine
 10
368.0971347686
 20
146.0026578107
 30
0.0
 11
368.1395555716
 21
145.9781688024
 31
0.0
  0
LINE
  5
167
330
1F
100
AcDbEntity
  8
0
  6
Continuous
 62
     7
370
    25
100
AcDbLine
 10
368.1395555716
 20
145.9781688024
 30
0.0
 11
368.1996485482
 21
146.0128597394
 31
0.0
  0
LINE
  5
168
330
1F
100
AcDbEntity
  8
0
  6
Continuous
 62
     7
370
    25
100
AcDbLine
 10
368.1996485482
 20
146.0128597394
 30
0.0
 11
368.2350044858
 21
145.9924491911
 31
0.0
  0
LINE
  5
169
330
1F
100
AcDbEntity
  8
0
  6
Continuous
 62
     7
370
    25
100
AcDbLine
 10
368.2350044858
 20
145.9924491911
 30
0.0
 11
368.2173270438
 21
145.9822442211
 31
0.0
  0
LWPOLYLINE
  5
16A
330
1F
100
AcDbEntity
  8
0
  6
Continuous
 62
     7
370
    25
100
AcDbPolyline
 90
        9
 70
   128
 43
0.0
 10
368.2173270438
 20
145.9822442211
 10
368.2131070906
 20
145.9778409441
 10
368.2102758761
 20
145.9730812201
 10
368.2089208549
 20
145.9681104258
 10
368.2090810129
 20
145.9630788044
 10
368.2107521355
 20
145.9581396403
 10
368.2138836463
 20
145.9534437848
 10
368.2183817687
 20
145.9491329651
 10
368.2241074181
 20
145.9453385678
  0
LINE
  5
16B
330
1F
100
AcDbEntity
  8
0
  6
Continuous
 62
     7
370
    25
100
AcDbLine
 10
368.2241074181
 20
145.9453385678
 30
0.0
 11
368.2948182395
 21
145.9045180795
 31
0.0
  0
ARC
  5
16C
330
1F
100
AcDbEntity
  8
0
  6
Continuous
 62
     7
370
    25
100
AcDbCircle
 10
368.3311251923
 20
145.9734811796
 30
0.0
 40
0.0779365383330327
100
AcDbArc
 50
242.2345737232
 51
290.7580375461
  0
LINE
  5
16D
330
1F
100
AcDbEntity
  8
0
  6
Continuous
 62
     7
370
    25
100
AcDbLine
 10
368.358747633
 20
145.9006038527
 30
0.0
 11
369.4370852889
 21
146.5231149309
 31
0.0
  0
LINE
  5
16E
330
1F
100
AcDbEntity
  8
0
  6
Continuous
 62
     7
370
    25
100
AcDbLine
 10
369.4370852889
 20
146.5231149309
 30
0.0
 11
369.4901186683
 21
146.4924994126
 31
0.0
  0
LINE
  5
16F
330
1F
100
AcDbEntity
  8
0
  6
Continuous
 62
     7
370
    25
100
AcDbLine
 10
369.4901186683
 20
146.4924994126
 30
0.0
 11
368.4471358964
 21
145.8903982745
 31
0.0
  0
ARC
  5
170
330
1F
100
AcDbEntity
  8
0
  6
Continuous
 62
     7
370
    25
100
AcDbCircle
 10
368.4548826355
 20
145.8699883344
 30
0.0
 40
0.0218306577800564
100
AcDbArc
 50
110.7846171048
 51
249.2153828952
  0
LINE
  5
171
330
1F
100
AcDbEntity
  8
0
  6
Continuous
 62
     7
370
    25
100
AcDbLine
 10
367.8886659191
 20
71.8874727405
 30
0.0
 11
367.8214912183
 21
71.9262518698
 31
0.0
  0
LINE
  5
172
330
1F
100
AcDbEntity
  8
0
  6
Continuous
 62
     7
370
    25
100
AcDbLine
 10
367.8214912183
 20
71.9262518698
 30
0.0
 11
367.8214912183
 21
145.4026777151
 31
0.0
  0
LINE
  5
173
330
1F
100
AcDbEntity
  8
0
  6
Continuous
 62
     7
370
    25
100
AcDbLine
 10
367.8886659191
 20
71.8874727405
 30
0.0
 11
367.8886659191
 21
145.3638985857
 31
0.0
  0
LINE
  5
174
330
1F
100
AcDbEntity
  8
0
  6
Continuous
 62
     7
370
    25
100
AcDbLine
 10
368.5885575392
 20
72.2915115725
 30
0.0
 11
367.8886659191
 21
71.8874727405
 31
0.0
  0
LINE
  5
175
330
1F
100
AcDbEntity
  8
0
  6
Continuous
 62
     7
370
    25
100
AcDbLine
 10
368.5885575392
 20
72.2915115725
 30
0.0
 11
368.5885575392
 21
145.7679374178
 31
0.0
  0
ARC
  5
176
330
1F
100
AcDbEntity
  8
0
  6
Continuous
 62
     7
370
    25
100
AcDbCircle
 10
367.7957155618
 20
71.9369470173
 30
0.0
 40
0.0150903256092379
100
AcDbArc
 50
238.8781790205
 51
297.7470080743
  0
LINE
  5
177
330
1F
100
AcDbEntity
  8
0
  6
Continuous
 62
     7
370
    25
100
AcDbLine
 10
367.7879159851
 20
71.9240286377
 30
0.0
 11
367.7879159851
 21
145.400454483
 31
0.0
  0
LINE
  5
178
330
1F
100
AcDbEntity
  8
0
  6
Continuous
 62
     7
370
    25
100
AcDbLine
 10
367.8027411391
 20
71.9235918988
 30
0.0
 11
367.8027411391
 21
145.4000177441
 31
0.0
  0
ARC
  5
179
330
1F
100
AcDbEntity
  8
0
  6
Continuous
 62
     7
370
    25
100
AcDbCircle
 10
367.8144200308
 20
71.9126033527
 30
0.0
 40
0.0153715227394931
100
AcDbArc
 50
62.6116874878
 51
117.3883125122
  0
LINE
  5
17A
330
1F
100
AcDbEntity
  8
0
  6
Continuous
 62
     7
370
    25
100
AcDbLine
 10
367.8073488433
 20
71.9262518698
 30
0.0
 11
367.8073488433
 21
145.4026777151
 31
0.0
  0
LINE
  5
17B
330
1F
100
AcDbEntity
  8
0
  6
Continuous
 62
     7
370
    25
100
AcDbLine
 10
367.8073488433
 20
71.9262518698
 30
0.0
 11
367.8027411391
 21
71.9235918988
 31
0.0
  0
ARC
  5
17C
330
1F
100
AcDbEntity
  8
0
  6
Continuous
 62
     7
370
    25
100
AcDbCircle
 10
367.7993860596
 20
71.9436698396
 30
0.0
 40
0.0227450966448167
100
AcDbArc
 50
183.5620272563
 51
239.7159144555
  0
LINE
  5
17D
330
1F
100
AcDbEntity
  8
0
  6
Continuous
 62
     7
370
    25
100
AcDbLine
 10
367.7796014656
 20
145.724662292
 30
0.0
 11
367.7796014656
 21
145.9132741234
 31
0.0
  0
LINE
  5
17E
330
1F
100
AcDbEntity
  8
0
  6
Continuous
 62
     7
370
    25
100
AcDbLine
 10
369.4901186683
 20
73.0160735674
 30
0.0
 11
368.5885575392
 21
72.4956134058
 31
0.0
  0
LINE
  5
17F
330
1F
100
AcDbEntity
  8
0
  6
Continuous
 62
     7
370
    25
100
AcDbLine
 10
369.4901186683
 20
73.0160735674
 30
0.0
 11
369.4901186683
 21
146.4924994126
 31
0.0
  0
LINE
  5
180
330
1F
100
AcDbEntity
  8
0
  6
Continuous
 62
     7
370
    25
100
AcDbLine
 10
368.2173270438
 20
145.950003028
 30
0.0
 11
368.2173270438
 21
145.9822442211
 31
0.0
  0
LINE
  5
181
330
1F
100
AcDbEntity
  8
0
  6
Continuous
 62
     7
370
    25
100
AcDbLine
 10
368.2350044858
 20
145.939046445
 30
0.0
 11
368.2350044858
 21
145.9924491911
 31
0.0
  0
LINE
  5
182
330
1F
100
AcDbEntity
  8
0
  6
Continuous
 62
     7
370
    25
100
AcDbLine
 10
368.1041954194
 20
145.9985816755
 30
0.0
 11
368.1041954194
 21
146.0067338377
 31
0.0
  0
LINE
  5
183
330
1F
100
AcDbEntity
  8
0
  6
Continuous
 62
     8
370
    25
100
AcDbLine
 10
369.9327680522
 20
153.87231587
 30
0.0
 11
370.0741886413
 21
153.7906755016
 31
0.0
  0
LINE
  5
184
330
1F
100
AcDbEntity
  8
0
  6
Continuous
 62
     8
370
    25
100
AcDbLine
 10
372.3368843505
 20
155.4235181486
 30
0.0
 11
372.619772944
 21
155.2602100396
 31
0.0
  0
LINE
  5
185
330
1F
100
AcDbEntity
  8
0
  6
Continuous
 62
     8
370
    25
100
AcDbLine
 10
369.9327680522
 20
152.1167538253
 30
0.0
 11
370.0741886413
 21
152.0351134569
 31
0.0
  0
LINE
  5
186
330
1F
100
AcDbEntity
  8
0
  6
Continuous
 62
     8
370
    25
100
AcDbLine
 10
372.3368843505
 20
153.6679561039
 30
0.0
 11
372.619772944
 21
153.5046479949
 31
0.0
  0
LINE
  5
187
330
1F
100
AcDbEntity
  8
0
  6
Continuous
 62
     8
370
    25
100
AcDbLine
 10
369.9327680522
 20
150.3611917806
 30
0.0
 11
370.0741886413
 21
150.2795514122
 31
0.0
  0
LINE
  5
188
330
1F
100
AcDbEntity
  8
0
  6
Continuous
 62
     8
370
    25
100
AcDbLine
 10
372.3368843505
 20
151.9123940592
 30
0.0
 11
372.619772944
 21
151.7490859502
 31
0.0
  0
LINE
  5
189
330
1F
100
AcDbEntity
  8
0
  6
Continuous
 62
     8
370
    25
100
AcDbLine
 10
369.9327680522
 20
148.6056273024
 30
0.0
 11
370.0741886413
 21
148.523986934
 31
0.0
  0
LINE
  5
18A
330
1F
100
AcDbEntity
  8
0
  6
Continuous
 62
     8
370
    25
100
AcDbLine
 10
372.3368843505
 20
150.156829581
 30
0.0
 11
372.619772944
 21
149.993521472
 31
0.0
  0
LINE
  5
18B
330
1F
100
AcDbEntity
  8
0
  6
Continuous
 62
     8
370
    25
100
AcDbLine
 10
380.9622195127
 20
160.2394826692
 30
0.0
 11
381.1036401018
 21
160.1578423008
 31
0.0
  0
LINE
  5
18C
330
1F
100
AcDbEntity
  8
0
  6
Continuous
 62
     8
370
    25
100
AcDbLine
 10
381.3510816153
 20
160.6273034638
 30
0.0
 11
381.6339702088
 21
160.4639953549
 31
0.0
  0
LINE
  5
18D
330
1F
100
AcDbEntity
  8
0
  6
Continuous
 62
     8
370
    25
100
AcDbLine
 10
382.3764330434
 20
161.0558907627
 30
0.0
 11
382.5178536326
 21
160.9742503944
 31
0.0
  0
LINE
  5
18E
330
1F
100
AcDbEntity
  8
0
  6
Continuous
 62
     8
370
    25
100
AcDbLine
 10
380.9622195127
 20
158.4839206245
 30
0.0
 11
381.1036401018
 21
158.4022802561
 31
0.0
  0
LINE
  5
18F
330
1F
100
AcDbEntity
  8
0
  6
Continuous
 62
     8
370
    25
100
AcDbLine
 10
384.7805496052
 20
162.6070931934
 30
0.0
 11
385.0634381987
 21
162.4437850845
 31
0.0
  0
LINE
  5
190
330
1F
100
AcDbEntity
  8
0
  6
Continuous
 62
     8
370
    25
100
AcDbLine
 10
381.3510816153
 20
158.8717414191
 30
0.0
 11
381.6339702088
 21
158.7084333102
 31
0.0
  0
LINE
  5
191
330
1F
100
AcDbEntity
  8
0
  6
Continuous
 62
     8
370
    25
100
AcDbLine
 10
382.3764330434
 20
159.300328718
 30
0.0
 11
382.5178536326
 21
159.2186883497
 31
0.0
  0
LINE
  5
192
330
1F
100
AcDbEntity
  8
0
  6
Continuous
 62
     8
370
    25
100
AcDbLine
 10
380.9622195127
 20
156.7283585797
 30
0.0
 11
381.1036401018
 21
156.6467182114
 31
0.0
  0
LINE
  5
193
330
1F
100
AcDbEntity
  8
0
  6
Continuous
 62
     8
370
    25
100
AcDbLine
 10
384.7805496052
 20
160.8515311487
 30
0.0
 11
385.0634381987
 21
160.6882230398
 31
0.0
  0
LINE
  5
194
330
1F
100
AcDbEntity
  8
0
  6
Continuous
 62
     8
370
    25
100
AcDbLine
 10
381.3510816153
 20
157.1161793744
 30
0.0
 11
381.6339702088
 21
156.9528712655
 31
0.0
  0
LINE
  5
195
330
1F
100
AcDbEntity
  8
0
  6
Continuous
 62
     8
370
    25
100
AcDbLine
 10
382.3764330434
 20
157.5447666733
 30
0.0
 11
382.5178536326
 21
157.463126305
 31
0.0
  0
LINE
  5
196
330
1F
100
AcDbEntity
  8
0
  6
Continuous
 62
     8
370
    25
100
AcDbLine
 10
380.9622195127
 20
154.9727941016
 30
0.0
 11
381.1036401018
 21
154.8911537332
 31
0.0
  0
LINE
  5
197
330
1F
100
AcDbEntity
  8
0
  6
Continuous
 62
     8
370
    25
100
AcDbLine
 10
384.7805496052
 20
159.095969104
 30
0.0
 11
385.0634381987
 21
158.932660995
 31
0.0
  0
LINE
  5
198
330
1F
100
AcDbEntity
  8
0
  6
Continuous
 62
     8
370
    25
100
AcDbLine
 10
381.3510816153
 20
155.3606148962
 30
0.0
 11
381.6339702088
 21
155.1973067873
 31
0.0
  0
LINE
  5
199
330
1F
100
AcDbEntity
  8
0
  6
Continuous
 62
     8
370
    25
100
AcDbLine
 10
382.3764330434
 20
155.7892021951
 30
0.0
 11
382.5178536326
 21
155.7075618268
 31
0.0
  0
LINE
  5
19A
330
1F
100
AcDbEntity
  8
0
  6
Continuous
 62
     8
370
    25
100
AcDbLine
 10
384.7805496052
 20
157.3404046258
 30
0.0
 11
385.0634381987
 21
157.1770965169
 31
0.0
  0
LINE
  5
19B
330
1F
100
AcDbEntity
  8
0
  6
Continuous
 62
     8
370
    25
100
AcDbLine
 10
365.4949662144
 20
152.5471361947
 30
0.0
 11
335.0893741177
 21
170.0999108909
 31
0.0
  0
LINE
  5
19C
330
1F
100
AcDbEntity
  8
0
  6
Continuous
 62
     8
370
    25
100
AcDbLine
 10
365.4949662144
 20
151.1181862697
 30
0.0
 11
335.0893741177
 21
168.6709609659
 31
0.0
  0
LINE
  5
19D
330
1F
100
AcDbEntity
  8
0
  6
Continuous
 62
     8
370
    25
100
AcDbLine
 10
365.4949662144
 20
149.6892412117
 30
0.0
 11
335.0893741177
 21
167.2420159078
 31
0.0
  0
LINE
  5
19E
330
1F
100
AcDbEntity
  8
0
  6
Continuous
 62
     8
370
    25
100
AcDbLine
 10
365.4949662144
 20
148.2602961536
 30
0.0
 11
335.0893741177
 21
165.8130708498
 31
0.0
  0
LINE
  5
19F
330
1F
100
AcDbEntity
  8
0
  6
Continuous
 62
     8
370
    25
100
AcDbLine
 10
365.4949662144
 20
146.8313486621
 30
0.0
 11
335.0893741177
 21
164.3841233582
 31
0.0
  0
LINE
  5
1A0
330
1F
100
AcDbEntity
  8
0
  6
Continuous
 62
     8
370
    25
100
AcDbLine
 10
370.8866550206
 20
72.5688502802
 30
0.0
 11
371.0280756098
 21
72.4872099119
 31
0.0
  0
LINE
  5
1A1
330
1F
100
AcDbEntity
  8
0
  6
Continuous
 62
     8
370
    25
100
AcDbLine
 10
373.2907713189
 20
74.1200525588
 30
0.0
 11
373.5736599124
 21
73.9567444499
 31
0.0
  0
LWPOLYLINE
  5
1A2
330
1F
100
AcDbEntity
  8
0
  6
Continuous
 62
     8
370
    25
100
AcDbPolyline
 90
       29
 70
   128
 43
0.0
 10
370.2353118285
 20
69.7127759072
 10
370.2994150778
 20
69.6688282954
 10
370.3693493435
 20
69.6066605207
 10
370.4236155183
 20
69.5394793728
 10
370.4611578236
 20
69.4685914188
 10
370.4812444848
 20
69.3953771306
 10
370.4834861703
 20
69.3212613841
 10
370.4678370454
 20
69.2476873034
 10
370.4346037285
 20
69.1760861511
 10
370.3844315932
 20
69.1078523895
 10
370.3182984464
 20
69.0443132669
 10
370.2374897669
 20
68.9867060074
 10
370.1435807932
 20
68.9361516553
 10
370.0383964839
 20
68.8936343938
 10
369.9239872831
 20
68.859981472
 10
369.8025774908
 20
68.8358479984
 10
369.6765310183
 20
68.8217044708
 10
369.5483023927
 20
68.8178243072
 10
369.420385127
 20
68.8242856706
 10
369.2952711535
 20
68.8409602157
 10
369.1753949796
 20
68.8675246462
 10
369.0630894334
 20
68.9034619314
 10
368.960539829
 20
68.948072559
 10
368.8697439269
 20
69.0004879176
 10
368.7924676801
 20
69.0596885442
 10
368.7302157312
 20
69.124521156
 10
368.6841987483
 20
69.1937248064
 10
368.6553144594
 20
69.2659515659
 10
368.648454533
 20
69.2967565608
  0
LWPOLYLINE
  5
1A3
330
1F
100
AcDbEntity
  8
0
  6
Continuous
 62
     8
370
    25
100
AcDbPolyline
 90
       13
 70
   128
 43
0.0
 10
370.1301749344
 20
69.7573112138
 10
370.1398365726
 20
69.7461308805
 10
370.178032154
 20
69.6877027587
 10
370.1985729475
 20
69.6263893013
 10
370.2008694239
 20
69.5639535831
 10
370.1848536215
 20
69.5021921338
 10
370.1509891555
 20
69.442881106
 10
370.1002475109
 20
69.3877273094
 10
370.0340896028
 20
69.33831742
 10
369.9544188883
 20
69.2960726641
 10
369.8635265753
 20
69.2622086722
 10
369.7640284026
 20
69.2376989826
 10
369.7199285745
 20
69.2303124384
  0
LWPOLYLINE
  5
1A4
330
1F
100
AcDbEntity
  8
0
  6
Continuous
 62
     8
370
    25
100
AcDbPolyline
 90
       25
 70
   128
 43
0.0
 10
370.5058276878
 20
69.3016544347
 10
370.5053156036
 20
69.2879147994
 10
370.4921747431
 20
69.214122045
 10
370.4617510405
 20
69.1420491782
 10
370.4146097904
 20
69.0730395664
 10
370.3516302815
 20
69.008378183
 10
370.2739852499
 20
68.9492700137
 10
370.1831219128
 20
68.8968157257
 10
370.0807324664
 20
68.851992203
 10
369.9687235286
 20
68.8156349064
 10
369.8491824222
 20
68.7884208421
 10
369.7243350275
 20
68.7708576124
 10
369.5965083775
 20
68.7632715551
 10
369.4680827154
 20
68.7658043974
 10
369.3414514554
 20
68.77840839
 10
369.21897166
 20
68.8008493483
 10
369.1029261078
 20
68.8327090859
 10
368.9954758785
 20
68.8733945379
 10
368.8986234743
 20
68.9221468859
 10
368.8141727803
 20
68.9780585887
 10
368.7436969275
 20
69.0400876774
 10
368.6885072099
 20
69.107079957
 10
368.6496351715
 20
69.1777854297
 10
368.6278009967
 20
69.2508887083
 10
368.6232328051
 20
69.2912721536
  0
LWPOLYLINE
  5
1A5
330
1F
100
AcDbEntity
  8
0
  6
Continuous
 62
     8
370
    25
100
AcDbPolyline
 90
       25
 70
   128
 43
0.0
 10
370.5058645663
 20
69.2291937057
 10
370.5053156036
 20
69.2106371687
 10
370.4921747431
 20
69.1368444144
 10
370.4617510405
 20
69.0647715476
 10
370.4146097904
 20
68.9957619357
 10
370.3516302815
 20
68.9311005523
 10
370.2739852499
 20
68.871992383
 10
370.1831219128
 20
68.8195380951
 10
370.0807324664
 20
68.7747145724
 10
369.9687235286
 20
68.7383572758
 10
369.8491824222
 20
68.7111432114
 10
369.7243350275
 20
68.6935799818
 10
369.5965083775
 20
68.6859939244
 10
369.4680827154
 20
68.6885267667
 10
369.3414514554
 20
68.7011307593
 10
369.21897166
 20
68.7235717177
 10
369.1029261078
 20
68.7554314552
 10
368.9954758785
 20
68.7961169073
 10
368.8986234743
 20
68.8448692552
 10
368.8141727803
 20
68.9007809581
 10
368.7436969275
 20
68.9628100468
 10
368.6885072099
 20
69.0298023264
 10
368.6496351715
 20
69.100507799
 10
368.6278009967
 20
69.1736110777
 10
368.6232328051
 20
69.213994523
  0
LWPOLYLINE
  5
1A6
330
1F
100
AcDbEntity
  8
0
  6
Continuous
 62
     8
370
    25
100
AcDbPolyline
 90
       13
 70
   128
 43
0.0
 10
370.0397104119
 20
69.8017980466
 10
370.0426801842
 20
69.7993725643
 10
370.0935714501
 20
69.7484864001
 10
370.1283826397
 20
69.6932723846
 10
370.1460574474
 20
69.6354066097
 10
370.1460574474
 20
69.5766488048
 10
370.1283836933
 20
69.51878303
 10
370.0935714501
 20
69.4635684062
 10
370.0426791306
 20
69.4126828503
 10
369.9772551044
 20
69.3676710676
 10
369.8992839615
 20
69.3299025813
 10
369.8111380426
 20
69.3005230705
 10
369.7199280477
 20
69.2811240777
  0
LINE
  5
1A7
330
1F
100
AcDbEntity
  8
0
  6
Continuous
 62
     8
370
    25
100
AcDbLine
 10
372.8311983949
 20
72.8748712427
 30
0.0
 11
372.9726189841
 21
72.7932308743
 31
0.0
  0
LINE
  5
1A8
330
1F
100
AcDbEntity
  8
0
  6
Continuous
 62
     8
370
    25
100
AcDbLine
 10
375.2353149566
 20
74.4260736733
 30
0.0
 11
375.5182035502
 21
74.2627655644
 31
0.0
  0
LINE
  5
1A9
330
1F
100
AcDbEntity
  8
0
  6
Continuous
 62
     8
370
    25
100
AcDbLine
 10
374.775742296
 20
74.8139725756
 30
0.0
 11
374.9171628852
 21
74.7323322072
 31
0.0
  0
LINE
  5
1AA
330
1F
100
AcDbEntity
  8
0
  6
Continuous
 62
     8
370
    25
100
AcDbLine
 10
377.1798586602
 20
76.3651748922
 30
0.0
 11
377.4627472538
 21
76.2018667833
 31
0.0
  0
LINE
  5
1AB
330
1F
100
AcDbEntity
  8
0
  6
Continuous
 62
     8
370
    25
100
AcDbLine
 10
376.7202859338
 20
75.1199936901
 30
0.0
 11
376.8617065229
 21
75.0383533217
 31
0.0
  0
LINE
  5
1AC
330
1F
100
AcDbEntity
  8
0
  6
Continuous
 62
     8
370
    25
100
AcDbLine
 10
379.1244023638
 20
76.6711960447
 30
0.0
 11
379.4072909573
 21
76.5078879358
 31
0.0
  0
LINE
  5
1AD
330
1F
100
AcDbEntity
  8
0
  6
Continuous
 62
     8
370
    25
100
AcDbLine
 10
378.6648295386
 20
77.0590948519
 30
0.0
 11
378.8062501277
 21
76.9774544836
 31
0.0
  0
LINE
  5
1AE
330
1F
100
AcDbEntity
  8
0
  6
Continuous
 62
     8
370
    25
100
AcDbLine
 10
381.0689458698
 20
78.6102971495
 30
0.0
 11
381.3518344633
 21
78.4469890406
 31
0.0
  0
LINE
  5
1AF
330
1F
100
AcDbEntity
  8
0
  6
Continuous
 62
     8
370
    25
100
AcDbLine
 10
380.6093732092
 20
77.3651159854
 30
0.0
 11
380.7507937984
 21
77.2834756171
 31
0.0
  0
LINE
  5
1B0
330
1F
100
AcDbEntity
  8
0
  6
Continuous
 62
     8
370
    25
100
AcDbLine
 10
383.013489771
 20
78.9163184161
 30
0.0
 11
383.2963783645
 21
78.7530103072
 31
0.0
  0
LINE
  5
1B1
330
1F
100
AcDbEntity
  8
0
  6
Continuous
 62
     8
370
    25
100
AcDbLine
 10
368.4112014933
 20
145.7471923229
 30
0.0
 11
368.4112014933
 21
145.7883473578
 31
0.0
  0
LINE
  5
1B2
330
1F
100
AcDbEntity
  8
0
  6
Continuous
 62
     8
370
    25
100
AcDbLine
 10
368.4471358964
 20
145.8495766265
 30
0.0
 11
368.4471358964
 21
145.8903982745
 31
0.0
  0
LINE
  5
1B3
330
1F
100
AcDbEntity
  8
0
  6
Continuous
 62
     7
370
    25
100
AcDbLine
 10
112.3499996662
 20
262.3400001621
 30
0.0
 11
112.3499996662
 21
212.5400005674
 31
0.0
  0
LINE
  5
1B4
330
1F
100
AcDbEntity
  8
0
  6
Continuous
 62
     7
370
    25
100
AcDbLine
 10
113.8499997258
 20
212.5400005674
 30
0.0
 11
113.8499997258
 21
262.3400001621
 31
0.0
  0
LINE
  5
1B5
330
1F
100
AcDbEntity
  8
0
  6
Continuous
 62
     7
370
    25
100
AcDbLine
 10
113.9749996066
 20
205.3900002337
 30
0.0
 11
75.0250003934
 21
205.3900002337
 31
0.0
  0
LINE
  5
1B6
330
1F
100
AcDbEntity
  8
0
  6
Continuous
 62
     7
370
    25
100
AcDbLine
 10
75.0250003934
 20
203.890000174
 30
0.0
 11
113.9749996066
 21
203.890000174
 31
0.0
  0
LINE
  5
1B7
330
1F
100
AcDbEntity
  8
0
  6
Continuous
 62
     7
370
    25
100
AcDbLine
 10
116.0250000358
 20
280.2546470261
 30
0.0
 11
72.9749999642
 21
280.2546470261
 31
0.0
  0
LINE
  5
1B8
330
1F
100
AcDbEntity
  8
0
  6
Continuous
 62
     7
370
    25
100
AcDbLine
 10
116.0250000358
 20
275.0046460724
 30
0.0
 11
72.9749999642
 21
275.0046460724
 31
0.0
  0
LINE
  5
1B9
330
1F
100
AcDbEntity
  8
0
  6
Continuous
 62
     7
370
    25
100
AcDbLine
 10
116.0250000358
 20
282.0046453571
 30
0.0
 11
72.9749999642
 21
282.0046453571
 31
0.0
  0
LINE
  5
1BA
330
1F
100
AcDbEntity
  8
0
  6
Continuous
 62
     7
370
    25
100
AcDbLine
 10
116.0250000358
 20
276.7546444035
 30
0.0
 11
72.9749999642
 21
276.7546444035
 31
0.0
  0
LINE
  5
1BB
330
1F
100
AcDbEntity
  8
0
  6
Continuous
 62
     7
370
    25
100
AcDbLine
 10
116.0250000358
 20
278.5046427345
 30
0.0
 11
72.9749999642
 21
278.5046427345
 31
0.0
  0
ARC
  5
1BC
330
1F
100
AcDbEntity
  8
0
  6
Continuous
 62
     7
370
    25
100
AcDbCircle
 10
74.3915
 20
176.565
 30
0.0
 40
0.0750000000000171
100
AcDbArc
 50
270.0
 51
0.0
  0
ARC
  5
1BD
330
1F
100
AcDbEntity
  8
0
  6
Continuous
 62
     7
370
    25
100
AcDbCircle
 10
72.6585
 20
176.565
 30
0.0
 40
0.0750000000000171
100
AcDbArc
 50
180.0
 51
270.0
  0
ARC
  5
1BE
330
1F
100
AcDbEntity
  8
0
  6
Continuous
 62
     7
370
    25
100
AcDbCircle
 10
116.3415
 20
176.565
 30
0.0
 40
0.0750000000000171
100
AcDbArc
 50
270.0
 51
0.0
  0
ARC
  5
1BF
330
1F
100
AcDbEntity
  8
0
  6
Continuous
 62
     7
370
    25
100
AcDbCircle
 10
114.6085
 20
176.565
 30
0.0
 40
0.0750000000000171
100
AcDbArc
 50
180.0
 51
270.0
  0
LINE
  5
1C0
330
1F
100
AcDbEntity
  8
0
  6
Continuous
 62
     7
370
    25
100
AcDbLine
 10
74.4665004015
 20
176.5650003052
 30
0.0
 11
74.4665004015
 21
176.6596405602
 31
0.0
  0
LINE
  5
1C1
330
1F
100
AcDbEntity
  8
0
  6
Continuous
 62
     7
370
    25
100
AcDbLine
 10
72.5835002661
 20
176.6596405602
 30
0.0
 11
72.5835002661
 21
176.5650003052
 31
0.0
  0
LINE
  5
1C2
330
1F
100
AcDbEntity
  8
0
  6
Continuous
 62
     7
370
    25
100
AcDbLine
 10
116.4164997339
 20
176.5650003052
 30
0.0
 11
116.4164997339
 21
176.6596405602
 31
0.0
  0
LINE
  5
1C3
330
1F
100
AcDbEntity
  8
0
  6
Continuous
 62
     7
370
    25
100
AcDbLine
 10
114.5334995985
 20
176.6596405602
 30
0.0
 11
114.5334995985
 21
176.5650003052
 31
0.0
  0
ARC
  5
1C4
330
1F
100
AcDbEntity
  8
0
  6
Continuous
 62
     7
370
    25
100
AcDbCircle
 10
116.3415
 20
176.6596408368
 30
0.0
 40
0.0750000000000029
100
AcDbArc
 50
0.0
 51
44.0751062253
  0
ARC
  5
1C5
330
1F
100
AcDbEntity
  8
0
  6
Continuous
 62
     7
370
    25
100
AcDbCircle
 10
114.6085
 20
176.6596408368
 30
0.0
 40
0.0750000000000171
100
AcDbArc
 50
135.9248937747
 51
180.0
  0
ARC
  5
1C6
330
1F
100
AcDbEntity
  8
0
  6
Continuous
 62
     7
370
    25
100
AcDbCircle
 10
74.3915
 20
176.6596408368
 30
0.0
 40
0.0750000000000171
100
AcDbArc
 50
0.0
 51
44.0751062253
  0
ARC
  5
1C7
330
1F
100
AcDbEntity
  8
0
  6
Continuous
 62
     7
370
    25
100
AcDbCircle
 10
72.6585
 20
176.6596408368
 30
0.0
 40
0.0750000000000029
100
AcDbArc
 50
135.9248937747
 51
180.0
  0
LINE
  5
1C8
330
1F
100
AcDbEntity
  8
0
  6
Continuous
 62
     7
370
    25
100
AcDbLine
 10
74.4453824759
 20
176.7118095255
 30
0.0
 11
74.162796855
 21
177.0036696291
 31
0.0
  0
LINE
  5
1C9
330
1F
100
AcDbEntity
  8
0
  6
Continuous
 62
     7
370
    25
100
AcDbLine
 10
72.8872038126
 20
177.0036696291
 30
0.0
 11
72.6046181917
 21
176.7118095255
 31
0.0
  0
LINE
  5
1CA
330
1F
100
AcDbEntity
  8
0
  6
Continuous
 62
     7
370
    25
100
AcDbLine
 10
116.3953818083
 20
176.7118095255
 30
0.0
 11
116.1127961874
 21
177.0036696291
 31
0.0
  0
LINE
  5
1CB
330
1F
100
AcDbEntity
  8
0
  6
Continuous
 62
     7
370
    25
100
AcDbLine
 10
114.837203145
 20
177.0036696291
 30
0.0
 11
114.5546175241
 21
176.7118095255
 31
0.0
  0
ARC
  5
1CC
330
1F
100
AcDbEntity
  8
0
  6
Continuous
 62
     7
370
    25
100
AcDbCircle
 10
116.0589145804
 20
176.9515
 30
0.0
 40
0.0750000000000171
100
AcDbArc
 50
44.0751062253
 51
90.0
  0
ARC
  5
1CD
330
1F
100
AcDbEntity
  8
0
  6
Continuous
 62
     7
370
    25
100
AcDbCircle
 10
114.8910854196
 20
176.9515
 30
0.0
 40
0.0750000000000171
100
AcDbArc
 50
90.0
 51
135.9248937747
  0
ARC
  5
1CE
330
1F
100
AcDbEntity
  8
0
  6
Continuous
 62
     7
370
    25
100
AcDbCircle
 10
74.1089145804
 20
176.9515
 30
0.0
 40
0.0750000000000171
100
AcDbArc
 50
44.0751062253
 51
90.0
  0
ARC
  5
1CF
330
1F
100
AcDbEntity
  8
0
  6
Continuous
 62
     7
370
    25
100
AcDbCircle
 10
72.9410854196
 20
176.9515
 30
0.0
 40
0.0750000000000171
100
AcDbArc
 50
90.0
 51
135.9248937747
  0
LINE
  5
1D0
330
1F
100
AcDbEntity
  8
0
  6
Continuous
 62
     7
370
    25
100
AcDbLine
 10
73.9406920671
 20
177.0265011883
 30
0.0
 11
73.9406920671
 21
177.1874992943
 31
0.0
  0
LINE
  5
1D1
330
1F
100
AcDbEntity
  8
0
  6
Continuous
 62
     7
370
    25
100
AcDbLine
 10
73.1093071103
 20
177.1874992943
 30
0.0
 11
73.1093071103
 21
177.0265011883
 31
0.0
  0
LINE
  5
1D2
330
1F
100
AcDbEntity
  8
0
  6
Continuous
 62
     7
370
    25
100
AcDbLine
 10
115.8906928897
 20
177.0265011883
 30
0.0
 11
115.8906928897
 21
177.1874992943
 31
0.0
  0
LINE
  5
1D3
330
1F
100
AcDbEntity
  8
0
  6
Continuous
 62
     7
370
    25
100
AcDbLine
 10
115.0593079329
 20
177.1874992943
 30
0.0
 11
115.0593079329
 21
177.0265011883
 31
0.0
  0
LINE
  5
1D4
330
1F
100
AcDbEntity
  8
0
  6
Continuous
 62
     7
370
    25
100
AcDbLine
 10
115.7209999561
 20
177.1874992943
 30
0.0
 11
115.7209999561
 21
177.2549985743
 31
0.0
  0
LINE
  5
1D5
330
1F
100
AcDbEntity
  8
0
  6
Continuous
 62
     7
370
    25
100
AcDbLine
 10
115.2289993763
 20
177.2549985743
 30
0.0
 11
115.2289993763
 21
177.1874992943
 31
0.0
  0
LINE
  5
1D6
330
1F
100
AcDbEntity
  8
0
  6
Continuous
 62
     7
370
    25
100
AcDbLine
 10
73.7710006237
 20
177.1874992943
 30
0.0
 11
73.7710006237
 21
177.2549985743
 31
0.0
  0
LINE
  5
1D7
330
1F
100
AcDbEntity
  8
0
  6
Continuous
 62
     7
370
    25
100
AcDbLine
 10
73.2790000439
 20
177.2549985743
 30
0.0
 11
73.2790000439
 21
177.1874992943
 31
0.0
  0
LINE
  5
1D8
330
1F
100
AcDbEntity
  8
0
  6
Continuous
 62
     7
370
    25
100
AcDbLine
 10
72.1850000024
 20
182.5049995279
 30
0.0
 11
72.1850000024
 21
272.4900006151
 31
0.0
  0
LINE
  5
1D9
330
1F
100
AcDbEntity
  8
0
  6
Continuous
 62
     7
370
    25
100
AcDbLine
 10
73.0825222731
 20
207.1400000548
 30
0.0
 11
73.0825222731
 21
207.5399993753
 31
0.0
  0
LINE
  5
1DA
330
1F
100
AcDbEntity
  8
0
  6
Continuous
 62
     7
370
    25
100
AcDbLine
 10
73.0825222731
 20
272.3399995661
 30
0.0
 11
73.0825222731
 21
272.4900006151
 31
0.0
  0
LINE
  5
1DB
330
1F
100
AcDbEntity
  8
0
  6
Continuous
 62
     7
370
    25
100
AcDbLine
 10
116.8149999976
 20
272.4900006151
 30
0.0
 11
116.8149999976
 21
182.5049995279
 31
0.0
  0
LINE
  5
1DC
330
1F
100
AcDbEntity
  8
0
  6
Continuous
 62
     7
370
    25
100
AcDbLine
 10
115.9174777269
 20
272.4900006151
 30
0.0
 11
115.9174777269
 21
272.3399995661
 31
0.0
  0
LINE
  5
1DD
330
1F
100
AcDbEntity
  8
0
  6
Continuous
 62
     7
370
    25
100
AcDbLine
 10
115.9174777269
 20
207.5399993753
 30
0.0
 11
115.9174777269
 21
207.1400000548
 31
0.0
  0
LINE
  5
1DE
330
1F
100
AcDbEntity
  8
0
  6
Continuous
 62
     7
370
    25
100
AcDbLine
 10
116.6499994397
 20
282.4900000191
 30
0.0
 11
116.4750002027
 21
282.4900000191
 31
0.0
  0
LINE
  5
1DF
330
1F
100
AcDbEntity
  8
0
  6
Continuous
 62
     7
370
    25
100
AcDbLine
 10
72.5249997973
 20
282.4900000191
 30
0.0
 11
72.3500005603
 21
282.4900000191
 31
0.0
  0
LINE
  5
1E0
330
1F
100
AcDbEntity
  8
0
  6
Continuous
 62
     7
370
    25
100
AcDbLine
 10
116.6499994397
 20
282.4900000191
 30
0.0
 11
116.6499994397
 21
272.7400003767
 31
0.0
  0
LINE
  5
1E1
330
1F
100
AcDbEntity
  8
0
  6
Continuous
 62
     7
370
    25
100
AcDbLine
 10
72.3500005603
 20
282.4900000191
 30
0.0
 11
72.3500005603
 21
272.7400003767
 31
0.0
  0
LINE
  5
1E2
330
1F
100
AcDbEntity
  8
0
  6
Continuous
 62
     7
370
    25
100
AcDbLine
 10
116.6499994397
 20
272.7400003767
 30
0.0
 11
116.4750002027
 21
272.7400003767
 31
0.0
  0
LINE
  5
1E3
330
1F
100
AcDbEntity
  8
0
  6
Continuous
 62
     7
370
    25
100
AcDbLine
 10
72.5249997973
 20
272.7400003767
 30
0.0
 11
72.3500005603
 21
272.7400003767
 31
0.0
  0
LINE
  5
1E4
330
1F
100
AcDbEntity
  8
0
  6
Continuous
 62
     7
370
    25
100
AcDbLine
 10
112.3499996662
 20
212.5400005674
 30
0.0
 11
113.8499997258
 21
212.5400005674
 31
0.0
  0
LINE
  5
1E5
330
1F
100
AcDbEntity
  8
0
  6
Continuous
 62
     7
370
    25
100
AcDbLine
 10
113.1000004411
 20
262.3400001621
 30
0.0
 11
113.8499997258
 21
262.3400001621
 31
0.0
  0
LINE
  5
1E6
330
1F
100
AcDbEntity
  8
0
  6
Continuous
 62
     7
370
    25
100
AcDbLine
 10
112.3499996662
 20
262.3400001621
 30
0.0
 11
113.1000004411
 21
262.3400001621
 31
0.0
  0
LINE
  5
1E7
330
1F
100
AcDbEntity
  8
0
  6
Continuous
 62
     7
370
    25
100
AcDbLine
 10
116.4750002027
 20
207.5399993753
 30
0.0
 11
72.5249997973
 21
207.5399993753
 31
0.0
  0
LINE
  5
1E8
330
1F
100
AcDbEntity
  8
0
  6
Continuous
 62
     7
370
    25
100
AcDbLine
 10
116.4750002027
 20
272.3399995661
 30
0.0
 11
116.4750002027
 21
207.5399993753
 31
0.0
  0
LINE
  5
1E9
330
1F
100
AcDbEntity
  8
0
  6
Continuous
 62
     7
370
    25
100
AcDbLine
 10
72.5249997973
 20
207.5399993753
 30
0.0
 11
72.5249997973
 21
272.3399995661
 31
0.0
  0
LINE
  5
1EA
330
1F
100
AcDbEntity
  8
0
  6
Continuous
 62
     7
370
    25
100
AcDbLine
 10
72.5249997973
 20
272.3399995661
 30
0.0
 11
116.4750002027
 21
272.3399995661
 31
0.0
  0
LINE
  5
1EB
330
1F
100
AcDbEntity
  8
0
  6
Continuous
 62
     7
370
    25
100
AcDbLine
 10
75.0250003934
 20
205.3900002337
 30
0.0
 11
75.0250003934
 21
203.890000174
 31
0.0
  0
LINE
  5
1EC
330
1F
100
AcDbEntity
  8
0
  6
Continuous
 62
     7
370
    25
100
AcDbLine
 10
113.9749996066
 20
204.6399994588
 30
0.0
 11
113.9749996066
 21
203.890000174
 31
0.0
  0
LINE
  5
1ED
330
1F
100
AcDbEntity
  8
0
  6
Continuous
 62
     7
370
    25
100
AcDbLine
 10
113.9749996066
 20
205.3900002337
 30
0.0
 11
113.9749996066
 21
204.6399994588
 31
0.0
  0
LINE
  5
1EE
330
1F
100
AcDbEntity
  8
0
  6
Continuous
 62
     7
370
    25
100
AcDbLine
 10
72.5249997973
 20
207.1400000548
 30
0.0
 11
116.4750002027
 21
207.1400000548
 31
0.0
  0
LINE
  5
1EF
330
1F
100
AcDbEntity
  8
0
  6
Continuous
 62
     7
370
    25
100
AcDbLine
 10
116.4750002027
 20
207.1400000548
 30
0.0
 11
116.4750002027
 21
181.3399999237
 31
0.0
  0
LINE
  5
1F0
330
1F
100
AcDbEntity
  8
0
  6
Continuous
 62
     7
370
    25
100
AcDbLine
 10
116.4750002027
 20
181.3399999237
 30
0.0
 11
72.5249997973
 21
181.3399999237
 31
0.0
  0
LINE
  5
1F1
330
1F
100
AcDbEntity
  8
0
  6
Continuous
 62
     7
370
    25
100
AcDbLine
 10
72.5249997973
 20
181.3399999237
 30
0.0
 11
72.5249997973
 21
207.1400000548
 31
0.0
  0
LWPOLYLINE
  5
1F2
330
1F
100
AcDbEntity
  8
0
  6
Continuous
 62
     7
370
    25
100
AcDbPolyline
 90
        3
 70
   128
 43
0.0
 10
87.6999996305
 20
181.3050000763
 10
87.6381963193
 20
181.3147901392
 10
87.5869735777
 20
181.3399999237
  0
LWPOLYLINE
  5
1F3
330
1F
100
AcDbEntity
  8
0
  6
Continuous
 62
     7
370
    25
100
AcDbPolyline
 90
        3
 70
   128
 43
0.0
 10
86.4130265713
 20
181.3399999237
 10
86.3618030846
 20
181.3147901392
 10
86.2999997735
 20
181.3050000763
  0
LINE
  5
1F4
330
1F
100
AcDbEntity
  8
0
  6
Continuous
 62
     7
370
    25
100
AcDbLine
 10
116.6000000834
 20
177.2549985743
 30
0.0
 11
72.3999999166
 21
177.2549985743
 31
0.0
  0
LWPOLYLINE
  5
1F5
330
1F
100
AcDbEntity
  8
0
  6
Continuous
 62
     7
370
    25
100
AcDbPolyline
 90
        3
 70
   128
 43
0.0
 10
91.4130264595
 20
181.3399999237
 10
91.3618035316
 20
181.3147901392
 10
91.299999848
 20
181.3050000763
  0
LINE
  5
1F6
330
1F
100
AcDbEntity
  8
0
  6
Continuous
 62
     7
370
    25
100
AcDbLine
 10
72.3999999166
 20
177.2549985743
 30
0.0
 11
72.3999999166
 21
182.2549997663
 31
0.0
  0
LINE
  5
1F7
330
1F
100
AcDbEntity
  8
0
  6
Continuous
 62
     7
370
    25
100
AcDbLine
 10
101.3000003695
 20
181.3050000763
 30
0.0
 11
97.700000152
 21
181.3050000763
 31
0.0
  0
LINE
  5
1F8
330
1F
100
AcDbEntity
  8
0
  6
Continuous
 62
     7
370
    25
100
AcDbLine
 10
86.2999997735
 20
181.3050000763
 30
0.0
 11
82.6999999285
 21
181.3050000763
 31
0.0
  0
LWPOLYLINE
  5
1F9
330
1F
100
AcDbEntity
  8
0
  6
Continuous
 62
     7
370
    25
100
AcDbPolyline
 90
        3
 70
   128
 43
0.0
 10
82.6999999285
 20
181.3050000763
 10
82.6381966174
 20
181.3147901392
 10
82.5869731307
 20
181.3399999237
  0
LINE
  5
1FA
330
1F
100
AcDbEntity
  8
0
  6
Continuous
 62
     7
370
    25
100
AcDbLine
 10
91.299999848
 20
181.3050000763
 30
0.0
 11
87.6999996305
 21
181.3050000763
 31
0.0
  0
LINE
  5
1FB
330
1F
100
AcDbEntity
  8
0
  6
Continuous
 62
     7
370
    25
100
AcDbLine
 10
96.2999999225
 20
181.3050000763
 30
0.0
 11
92.7000000775
 21
181.3050000763
 31
0.0
  0
LWPOLYLINE
  5
1FC
330
1F
100
AcDbEntity
  8
0
  6
Continuous
 62
     7
370
    25
100
AcDbPolyline
 90
        3
 70
   128
 43
0.0
 10
106.4130268693
 20
181.3399999237
 10
106.3618033826
 20
181.3147901392
 10
106.3000000715
 20
181.3050000763
  0
LWPOLYLINE
  5
1FD
330
1F
100
AcDbEntity
  8
0
  6
Continuous
 62
     7
370
    25
100
AcDbPolyline
 90
        3
 70
   128
 43
0.0
 10
92.7000000775
 20
181.3050000763
 10
92.6381965801
 20
181.3147901392
 10
92.586973466
 20
181.3399999237
  0
LWPOLYLINE
  5
1FE
330
1F
100
AcDbEntity
  8
0
  6
Continuous
 62
     7
370
    25
100
AcDbPolyline
 90
        3
 70
   128
 43
0.0
 10
97.700000152
 20
181.3050000763
 10
97.6381964684
 20
181.3147901392
 10
97.5869735405
 20
181.3399999237
  0
LWPOLYLINE
  5
1FF
330
1F
100
AcDbEntity
  8
0
  6
Continuous
 62
     7
370
    25
100
AcDbPolyline
 90
        3
 70
   128
 43
0.0
 10
96.413026534
 20
181.3399999237
 10
96.3618034199
 20
181.3147901392
 10
96.2999999225
 20
181.3050000763
  0
LINE
  5
200
330
1F
100
AcDbEntity
  8
0
  6
Continuous
 62
     7
370
    25
100
AcDbLine
 10
116.6000000834
 20
182.2549997663
 30
0.0
 11
116.6000000834
 21
177.2549985743
 31
0.0
  0
LINE
  5
201
330
1F
100
AcDbEntity
  8
0
  6
Continuous
 62
     7
370
    25
100
AcDbLine
 10
111.2999997735
 20
181.3050000763
 30
0.0
 11
107.6999999285
 21
181.3050000763
 31
0.0
  0
LWPOLYLINE
  5
202
330
1F
100
AcDbEntity
  8
0
  6
Continuous
 62
     7
370
    25
100
AcDbPolyline
 90
        3
 70
   128
 43
0.0
 10
107.6999999285
 20
181.3050000763
 10
107.6381958723
 20
181.3147901392
 10
107.5869731307
 20
181.3399999237
  0
LWPOLYLINE
  5
203
330
1F
100
AcDbEntity
  8
0
  6
Continuous
 62
     7
370
    25
100
AcDbPolyline
 90
        3
 70
   128
 43
0.0
 10
111.4130265713
 20
181.3399999237
 10
111.3618038297
 20
181.3147901392
 10
111.2999997735
 20
181.3050000763
  0
LINE
  5
204
330
1F
100
AcDbEntity
  8
0
  6
Continuous
 62
     7
370
    25
100
AcDbLine
 10
106.3000000715
 20
181.3050000763
 30
0.0
 11
102.7000002265
 21
181.3050000763
 31
0.0
  0
LWPOLYLINE
  5
205
330
1F
100
AcDbEntity
  8
0
  6
Continuous
 62
     7
370
    25
100
AcDbPolyline
 90
        3
 70
   128
 43
0.0
 10
102.7000002265
 20
181.3050000763
 10
102.6381969154
 20
181.3147901392
 10
102.5869734287
 20
181.3399999237
  0
LINE
  5
206
330
1F
100
AcDbEntity
  8
0
  6
Continuous
 62
     7
370
    25
100
AcDbLine
 10
81.3000000715
 20
181.3050000763
 30
0.0
 11
77.7000002265
 21
181.3050000763
 31
0.0
  0
LWPOLYLINE
  5
207
330
1F
100
AcDbEntity
  8
0
  6
Continuous
 62
     7
370
    25
100
AcDbPolyline
 90
        3
 70
   128
 43
0.0
 10
81.4130268693
 20
181.3399999237
 10
81.3618041277
 20
181.3147901392
 10
81.3000000715
 20
181.3050000763
  0
LWPOLYLINE
  5
208
330
1F
100
AcDbEntity
  8
0
  6
Continuous
 62
     7
370
    25
100
AcDbPolyline
 90
        3
 70
   128
 43
0.0
 10
77.7000002265
 20
181.3050000763
 10
77.6381961703
 20
181.3147901392
 10
77.5869734287
 20
181.3399999237
  0
LWPOLYLINE
  5
209
330
1F
100
AcDbEntity
  8
0
  6
Continuous
 62
     7
370
    25
100
AcDbPolyline
 90
        3
 70
   128
 43
0.0
 10
101.4130264223
 20
181.3399999237
 10
101.3618036807
 20
181.3147901392
 10
101.3000003695
 20
181.3050000763
  0
LINE
  5
20A
330
1F
100
AcDbEntity
  8
0
  6
Continuous
 62
     7
370
    25
100
AcDbLine
 10
116.4750002027
 20
272.7400003767
 30
0.0
 11
116.4750002027
 21
282.4900000191
 31
0.0
  0
LINE
  5
20B
330
1F
100
AcDbEntity
  8
0
  6
Continuous
 62
     7
370
    25
100
AcDbLine
 10
116.4750002027
 20
282.4900000191
 30
0.0
 11
72.5249997973
 21
282.4900000191
 31
0.0
  0
LINE
  5
20C
330
1F
100
AcDbEntity
  8
0
  6
Continuous
 62
     7
370
    25
100
AcDbLine
 10
116.0250000358
 20
273.1900005436
 30
0.0
 11
72.9749999642
 21
273.1900005436
 31
0.0
  0
LINE
  5
20D
330
1F
100
AcDbEntity
  8
0
  6
Continuous
 62
     7
370
    25
100
AcDbLine
 10
116.0250000358
 20
282.0400028324
 30
0.0
 11
116.0250000358
 21
273.1900005436
 31
0.0
  0
LINE
  5
20E
330
1F
100
AcDbEntity
  8
0
  6
Continuous
 62
     7
370
    25
100
AcDbLine
 10
72.9749999642
 20
273.1900005436
 30
0.0
 11
72.9749999642
 21
282.0400028324
 31
0.0
  0
LINE
  5
20F
330
1F
100
AcDbEntity
  8
0
  6
Continuous
 62
     7
370
    25
100
AcDbLine
 10
72.5249997973
 20
282.4900000191
 30
0.0
 11
72.5249997973
 21
272.7400003767
 31
0.0
  0
LINE
  5
210
330
1F
100
AcDbEntity
  8
0
  6
Continuous
 62
     7
370
    25
100
AcDbLine
 10
72.5249997973
 20
272.7400003767
 30
0.0
 11
116.4750002027
 21
272.7400003767
 31
0.0
  0
LINE
  5
211
330
1F
100
AcDbEntity
  8
0
  6
Continuous
 62
     7
370
    25
100
AcDbLine
 10
72.9749999642
 20
282.0400028324
 30
0.0
 11
116.0250000358
 21
282.0400028324
 31
0.0
  0
LINE
  5
212
330
1F
100
AcDbEntity
  8
0
  6
Continuous
 62
     7
370
    25
100
AcDbLine
 10
116.0250000358
 20
280.2296428776
 30
0.0
 11
72.9749999642
 21
280.2296428776
 31
0.0
  0
LINE
  5
213
330
1F
100
AcDbEntity
  8
0
  6
Continuous
 62
     7
370
    25
100
AcDbLine
 10
116.0250000358
 20
274.9796449041
 30
0.0
 11
72.9749999642
 21
274.9796449041
 31
0.0
  0
LINE
  5
214
330
1F
100
AcDbEntity
  8
0
  6
Continuous
 62
     7
370
    25
100
AcDbLine
 10
116.0250000358
 20
281.9796471691
 30
0.0
 11
72.9749999642
 21
281.9796471691
 31
0.0
  0
LINE
  5
215
330
1F
100
AcDbEntity
  8
0
  6
Continuous
 62
     7
370
    25
100
AcDbLine
 10
116.0250000358
 20
276.7296462154
 30
0.0
 11
72.9749999642
 21
276.7296462154
 31
0.0
  0
LINE
  5
216
330
1F
100
AcDbEntity
  8
0
  6
Continuous
 62
     7
370
    25
100
AcDbLine
 10
116.0250000358
 20
278.4796445465
 30
0.0
 11
72.9749999642
 21
278.4796445465
 31
0.0
  0
LINE
  5
217
330
1F
100
AcDbEntity
  8
0
  6
Continuous
 62
     7
370
    25
100
AcDbLine
 10
116.0250000358
 20
277.7399985886
 30
0.0
 11
72.9749999642
 21
277.7399985886
 31
0.0
  0
LINE
  5
218
330
1F
100
AcDbEntity
  8
0
  6
Continuous
 62
     7
370
    25
100
AcDbLine
 10
116.0250000358
 20
281.2400012112
 30
0.0
 11
72.9749999642
 21
281.2400012112
 31
0.0
  0
LINE
  5
219
330
1F
100
AcDbEntity
  8
0
  6
Continuous
 62
     7
370
    25
100
AcDbLine
 10
116.0250000358
 20
277.3204474545
 30
0.0
 11
72.9749999642
 21
277.3204474545
 31
0.0
  0
LINE
  5
21A
330
1F
100
AcDbEntity
  8
0
  6
Continuous
 62
     7
370
    25
100
AcDbLine
 10
116.0250000358
 20
274.2399989462
 30
0.0
 11
72.9749999642
 21
274.2399989462
 31
0.0
  0
LINE
  5
21B
330
1F
100
AcDbEntity
  8
0
  6
Continuous
 62
     7
370
    25
100
AcDbLine
 10
116.0250000358
 20
275.5704491234
 30
0.0
 11
72.9749999642
 21
275.5704491234
 31
0.0
  0
LINE
  5
21C
330
1F
100
AcDbEntity
  8
0
  6
Continuous
 62
     7
370
    25
100
AcDbLine
 10
116.0250000358
 20
275.9900002575
 30
0.0
 11
72.9749999642
 21
275.9900002575
 31
0.0
  0
LINE
  5
21D
330
1F
100
AcDbEntity
  8
0
  6
Continuous
 62
     7
370
    25
100
AcDbLine
 10
116.0250000358
 20
279.070451746
 30
0.0
 11
72.9749999642
 21
279.070451746
 31
0.0
  0
LINE
  5
21E
330
1F
100
AcDbEntity
  8
0
  6
Continuous
 62
     7
370
    25
100
AcDbLine
 10
116.0250000358
 20
279.4900028801
 30
0.0
 11
72.9749999642
 21
279.4900028801
 31
0.0
  0
LINE
  5
21F
330
1F
100
AcDbEntity
  8
0
  6
Continuous
 62
     7
370
    25
100
AcDbLine
 10
116.0250000358
 20
280.8204500771
 30
0.0
 11
72.9749999642
 21
280.8204500771
 31
0.0
  0
LINE
  5
220
330
1F
100
AcDbEntity
  8
0
  6
Continuous
 62
     7
370
    25
100
AcDbLine
 10
116.0250000358
 20
273.8204507923
 30
0.0
 11
72.9749999642
 21
273.8204507923
 31
0.0
  0
LINE
  5
221
330
1F
100
AcDbEntity
  8
0
  6
Continuous
 62
     7
370
    25
100
AcDbLine
 10
116.6499994397
 20
182.2549997663
 30
0.0
 11
116.4750002027
 21
182.2549997663
 31
0.0
  0
LINE
  5
222
330
1F
100
AcDbEntity
  8
0
  6
Continuous
 62
     7
370
    25
100
AcDbLine
 10
72.5249997973
 20
182.2549997663
 30
0.0
 11
72.3500005603
 21
182.2549997663
 31
0.0
  0
LINE
  5
223
330
1F
100
AcDbEntity
  8
0
  6
Continuous
 62
     7
370
    25
100
AcDbLine
 10
116.6499994397
 20
272.7400003767
 30
0.0
 11
116.6499994397
 21
272.4900006151
 31
0.0
  0
LINE
  5
224
330
1F
100
AcDbEntity
  8
0
  6
Continuous
 62
     7
370
    25
100
AcDbLine
 10
116.6499994397
 20
182.5049995279
 30
0.0
 11
116.6499994397
 21
182.2549997663
 31
0.0
  0
LINE
  5
225
330
1F
100
AcDbEntity
  8
0
  6
Continuous
 62
     7
370
    25
100
AcDbLine
 10
72.3500005603
 20
272.7400003767
 30
0.0
 11
72.3500005603
 21
272.4900006151
 31
0.0
  0
LINE
  5
226
330
1F
100
AcDbEntity
  8
0
  6
Continuous
 62
     7
370
    25
100
AcDbLine
 10
72.3500005603
 20
182.5049995279
 30
0.0
 11
72.3500005603
 21
182.2549997663
 31
0.0
  0
LINE
  5
227
330
1F
100
AcDbEntity
  8
0
  6
Continuous
 62
     7
370
    25
100
AcDbLine
 10
72.6584993005
 20
176.4899997807
 30
0.0
 11
74.391499877
 21
176.4899997807
 31
0.0
  0
LINE
  5
228
330
1F
100
AcDbEntity
  8
0
  6
Continuous
 62
     7
370
    25
100
AcDbLine
 10
116.3415006995
 20
176.4899997807
 30
0.0
 11
114.608500123
 21
176.4899997807
 31
0.0
  0
LINE
  5
229
330
1F
100
AcDbEntity
  8
0
  6
Continuous
 62
     7
370
    25
100
AcDbLine
 10
116.6399992704
 20
182.2450010872
 30
0.0
 11
116.6399992704
 21
182.2549997663
 31
0.0
  0
LINE
  5
22A
330
1F
100
AcDbEntity
  8
0
  6
Continuous
 62
     7
370
    25
100
AcDbLine
 10
116.6499994397
 20
182.2450010872
 30
0.0
 11
116.6399992704
 21
182.2450010872
 31
0.0
  0
LINE
  5
22B
330
1F
100
AcDbEntity
  8
0
  6
Continuous
 62
     7
370
    25
100
AcDbLine
 10
116.6499994397
 20
178.1049995518
 30
0.0
 11
116.6499994397
 21
182.2450010872
 31
0.0
  0
LINE
  5
22C
330
1F
100
AcDbEntity
  8
0
  6
Continuous
 62
     7
370
    25
100
AcDbLine
 10
116.6499994397
 20
178.1049995518
 30
0.0
 11
116.6000000834
 21
178.1049995518
 31
0.0
  0
LINE
  5
22D
330
1F
100
AcDbEntity
  8
0
  6
Continuous
 62
     7
370
    25
100
AcDbLine
 10
72.3999999166
 20
178.1049995518
 30
0.0
 11
72.3500005603
 21
178.1049995518
 31
0.0
  0
LINE
  5
22E
330
1F
100
AcDbEntity
  8
0
  6
Continuous
 62
     7
370
    25
100
AcDbLine
 10
72.3500005603
 20
178.1049995518
 30
0.0
 11
72.3500005603
 21
182.2450010872
 31
0.0
  0
LINE
  5
22F
330
1F
100
AcDbEntity
  8
0
  6
Continuous
 62
     7
370
    25
100
AcDbLine
 10
72.3600007296
 20
182.2549997663
 30
0.0
 11
72.3600007296
 21
182.2450010872
 31
0.0
  0
LINE
  5
230
330
1F
100
AcDbEntity
  8
0
  6
Continuous
 62
     7
370
    25
100
AcDbLine
 10
72.3600007296
 20
182.2450010872
 30
0.0
 11
72.3500005603
 21
182.2450010872
 31
0.0
  0
LINE
  5
231
330
1F
100
AcDbEntity
  8
0
  6
Continuous
 62
     7
370
    25
100
AcDbLine
 10
116.0589150786
 20
177.0265011883
 30
0.0
 11
114.8910857439
 21
177.0265011883
 31
0.0
  0
LINE
  5
232
330
1F
100
AcDbEntity
  8
0
  6
Continuous
 62
     7
370
    25
100
AcDbLine
 10
72.9410849214
 20
177.0265011883
 30
0.0
 11
74.1089142561
 21
177.0265011883
 31
0.0
  0
LINE
  5
233
330
1F
100
AcDbEntity
  8
0
  6
Continuous
 62
     7
370
    25
100
AcDbLine
 10
73.1093071103
 20
177.1874992943
 30
0.0
 11
73.9406920671
 21
177.1874992943
 31
0.0
  0
LINE
  5
234
330
1F
100
AcDbEntity
  8
0
  6
Continuous
 62
     7
370
    25
100
AcDbLine
 10
115.8906928897
 20
177.1874992943
 30
0.0
 11
115.0593079329
 21
177.1874992943
 31
0.0
  0
LINE
  5
235
330
1F
100
AcDbEntity
  8
0
  6
Continuous
 62
     7
370
    25
100
AcDbLine
 10
72.3999999166
 20
177.4049996233
 30
0.0
 11
72.3500005603
 21
177.4049996233
 31
0.0
  0
LINE
  5
236
330
1F
100
AcDbEntity
  8
0
  6
Continuous
 62
     7
370
    25
100
AcDbLine
 10
72.3500005603
 20
177.4049996233
 30
0.0
 11
72.3500005603
 21
178.1049995518
 31
0.0
  0
LINE
  5
237
330
1F
100
AcDbEntity
  8
0
  6
Continuous
 62
     7
370
    25
100
AcDbLine
 10
116.6499994397
 20
177.4049996233
 30
0.0
 11
116.6000000834
 21
177.4049996233
 31
0.0
  0
LINE
  5
238
330
1F
100
AcDbEntity
  8
0
  6
Continuous
 62
     7
370
    25
100
AcDbLine
 10
116.6499994397
 20
177.4049996233
 30
0.0
 11
116.6499994397
 21
178.1049995518
 31
0.0
  0
LINE
  5
239
330
1F
100
AcDbEntity
  8
0
  6
Continuous
 62
     7
370
    25
100
AcDbLine
 10
114.9624995589
 20
177.2549985743
 30
0.0
 11
114.9624995589
 21
177.0265011883
 31
0.0
  0
LINE
  5
23A
330
1F
100
AcDbEntity
  8
0
  6
Continuous
 62
     7
370
    25
100
AcDbLine
 10
115.9874997735
 20
177.2549985743
 30
0.0
 11
115.9874997735
 21
177.0265011883
 31
0.0
  0
LINE
  5
23B
330
1F
100
AcDbEntity
  8
0
  6
Continuous
 62
     7
370
    25
100
AcDbLine
 10
73.0125002265
 20
177.2549985743
 30
0.0
 11
73.0125002265
 21
177.0265011883
 31
0.0
  0
LINE
  5
23C
330
1F
100
AcDbEntity
  8
0
  6
Continuous
 62
     7
370
    25
100
AcDbLine
 10
74.0375004411
 20
177.2549985743
 30
0.0
 11
74.0375004411
 21
177.0265011883
 31
0.0
  0
LINE
  5
23D
330
1F
100
AcDbEntity
  8
0
  6
Continuous
 62
     7
370
    25
100
AcDbLine
 10
72.141017735
 20
182.5049995279
 30
0.0
 11
72.1299998164
 21
182.5049995279
 31
0.0
  0
LINE
  5
23E
330
1F
100
AcDbEntity
  8
0
  6
Continuous
 62
     7
370
    25
100
AcDbLine
 10
72.1299998164
 20
182.5049995279
 30
0.0
 11
72.1299998164
 21
272.4900006151
 31
0.0
  0
LINE
  5
23F
330
1F
100
AcDbEntity
  8
0
  6
Continuous
 62
     7
370
    25
100
AcDbLine
 10
72.141017735
 20
272.4900006151
 30
0.0
 11
72.1299998164
 21
272.4900006151
 31
0.0
  0
LINE
  5
240
330
1F
100
AcDbEntity
  8
0
  6
Continuous
 62
     7
370
    25
100
AcDbLine
 10
72.141017735
 20
182.5049995279
 30
0.0
 11
72.141017735
 21
272.4900006151
 31
0.0
  0
LINE
  5
241
330
1F
100
AcDbEntity
  8
0
  6
Continuous
 62
     7
370
    25
100
AcDbLine
 10
72.1840686798
 20
182.5049995279
 30
0.0
 11
72.1840686798
 21
272.4900006151
 31
0.0
  0
LINE
  5
242
330
1F
100
AcDbEntity
  8
0
  6
Continuous
 62
     7
370
    25
100
AcDbLine
 10
72.1840686798
 20
272.4900006151
 30
0.0
 11
72.141017735
 21
272.4900006151
 31
0.0
  0
LINE
  5
243
330
1F
100
AcDbEntity
  8
0
  6
Continuous
 62
     7
370
    25
100
AcDbLine
 10
72.1840686798
 20
182.5049995279
 30
0.0
 11
72.141017735
 21
182.5049995279
 31
0.0
  0
LINE
  5
244
330
1F
100
AcDbEntity
  8
0
  6
Continuous
 62
     7
370
    25
100
AcDbLine
 10
72.1199996471
 20
182.5049995279
 30
0.0
 11
72.1199996471
 21
272.4900006151
 31
0.0
  0
LINE
  5
245
330
1F
100
AcDbEntity
  8
0
  6
Continuous
 62
     7
370
    25
100
AcDbLine
 10
72.1299998164
 20
272.4900006151
 30
0.0
 11
72.1199996471
 21
272.4900006151
 31
0.0
  0
LINE
  5
246
330
1F
100
AcDbEntity
  8
0
  6
Continuous
 62
     7
370
    25
100
AcDbLine
 10
72.1299998164
 20
182.5049995279
 30
0.0
 11
72.1199996471
 21
182.5049995279
 31
0.0
  0
LINE
  5
247
330
1F
100
AcDbEntity
  8
0
  6
Continuous
 62
     7
370
    25
100
AcDbLine
 10
72.0250002742
 20
182.5049995279
 30
0.0
 11
72.0250002742
 21
272.4900006151
 31
0.0
  0
LINE
  5
248
330
1F
100
AcDbEntity
  8
0
  6
Continuous
 62
     7
370
    25
100
AcDbLine
 10
72.1199996471
 20
272.4900006151
 30
0.0
 11
72.0250002742
 21
272.4900006151
 31
0.0
  0
LINE
  5
249
330
1F
100
AcDbEntity
  8
0
  6
Continuous
 62
     7
370
    25
100
AcDbLine
 10
72.1199996471
 20
182.5049995279
 30
0.0
 11
72.0250002742
 21
182.5049995279
 31
0.0
  0
LINE
  5
24A
330
1F
100
AcDbEntity
  8
0
  6
Continuous
 62
     7
370
    25
100
AcDbLine
 10
72.1850000024
 20
272.4900006151
 30
0.0
 11
72.1840686798
 21
272.4900006151
 31
0.0
  0
LINE
  5
24B
330
1F
100
AcDbEntity
  8
0
  6
Continuous
 62
     7
370
    25
100
AcDbLine
 10
72.1850000024
 20
182.5049995279
 30
0.0
 11
72.1840686798
 21
182.5049995279
 31
0.0
  0
LINE
  5
24C
330
1F
100
AcDbEntity
  8
0
  6
Continuous
 62
     7
370
    25
100
AcDbLine
 10
73.0686269403
 20
207.1400000548
 30
0.0
 11
73.0686269403
 21
207.5399993753
 31
0.0
  0
LINE
  5
24D
330
1F
100
AcDbEntity
  8
0
  6
Continuous
 62
     7
370
    25
100
AcDbLine
 10
73.0686269403
 20
272.3399995661
 30
0.0
 11
73.0686269403
 21
272.4900006151
 31
0.0
  0
LINE
  5
24E
330
1F
100
AcDbEntity
  8
0
  6
Continuous
 62
     7
370
    25
100
AcDbLine
 10
73.082252562
 20
207.1400000548
 30
0.0
 11
73.082252562
 21
207.5399993753
 31
0.0
  0
LINE
  5
24F
330
1F
100
AcDbEntity
  8
0
  6
Continuous
 62
     7
370
    25
100
AcDbLine
 10
73.082252562
 20
272.3399995661
 30
0.0
 11
73.082252562
 21
272.4900006151
 31
0.0
  0
LINE
  5
250
330
1F
100
AcDbEntity
  8
0
  6
Continuous
 62
     7
370
    25
100
AcDbLine
 10
73.082252562
 20
272.4900006151
 30
0.0
 11
73.0686269403
 21
272.4900006151
 31
0.0
  0
LINE
  5
251
330
1F
100
AcDbEntity
  8
0
  6
Continuous
 62
     7
370
    25
100
AcDbLine
 10
73.0686269403
 20
272.4900006151
 30
0.0
 11
72.1850000024
 21
272.4900006151
 31
0.0
  0
LINE
  5
252
330
1F
100
AcDbEntity
  8
0
  6
Continuous
 62
     7
370
    25
100
AcDbLine
 10
72.5249997973
 20
182.5049995279
 30
0.0
 11
72.1850000024
 21
182.5049995279
 31
0.0
  0
LINE
  5
253
330
1F
100
AcDbEntity
  8
0
  6
Continuous
 62
     7
370
    25
100
AcDbLine
 10
73.082252562
 20
272.4900006151
 30
0.0
 11
73.0825222731
 21
272.4900006151
 31
0.0
  0
LINE
  5
254
330
1F
100
AcDbEntity
  8
0
  6
Continuous
 62
     7
370
    25
100
AcDbLine
 10
116.8700001836
 20
182.5049995279
 30
0.0
 11
116.858982265
 21
182.5049995279
 31
0.0
  0
LINE
  5
255
330
1F
100
AcDbEntity
  8
0
  6
Continuous
 62
     7
370
    25
100
AcDbLine
 10
116.858982265
 20
182.5049995279
 30
0.0
 11
116.858982265
 21
272.4900006151
 31
0.0
  0
LINE
  5
256
330
1F
100
AcDbEntity
  8
0
  6
Continuous
 62
     7
370
    25
100
AcDbLine
 10
116.8700001836
 20
182.5049995279
 30
0.0
 11
116.8700001836
 21
272.4900006151
 31
0.0
  0
LINE
  5
257
330
1F
100
AcDbEntity
  8
0
  6
Continuous
 62
     7
370
    25
100
AcDbLine
 10
116.8700001836
 20
272.4900006151
 30
0.0
 11
116.858982265
 21
272.4900006151
 31
0.0
  0
LINE
  5
258
330
1F
100
AcDbEntity
  8
0
  6
Continuous
 62
     7
370
    25
100
AcDbLine
 10
116.8159313202
 20
182.5049995279
 30
0.0
 11
116.8159313202
 21
272.4900006151
 31
0.0
  0
LINE
  5
259
330
1F
100
AcDbEntity
  8
0
  6
Continuous
 62
     7
370
    25
100
AcDbLine
 10
116.858982265
 20
182.5049995279
 30
0.0
 11
116.8159313202
 21
182.5049995279
 31
0.0
  0
LINE
  5
25A
330
1F
100
AcDbEntity
  8
0
  6
Continuous
 62
     7
370
    25
100
AcDbLine
 10
116.858982265
 20
272.4900006151
 30
0.0
 11
116.8159313202
 21
272.4900006151
 31
0.0
  0
LINE
  5
25B
330
1F
100
AcDbEntity
  8
0
  6
Continuous
 62
     7
370
    25
100
AcDbLine
 10
116.8800003529
 20
182.5049995279
 30
0.0
 11
116.8800003529
 21
272.4900006151
 31
0.0
  0
LINE
  5
25C
330
1F
100
AcDbEntity
  8
0
  6
Continuous
 62
     7
370
    25
100
AcDbLine
 10
116.8800003529
 20
182.5049995279
 30
0.0
 11
116.8700001836
 21
182.5049995279
 31
0.0
  0
LINE
  5
25D
330
1F
100
AcDbEntity
  8
0
  6
Continuous
 62
     7
370
    25
100
AcDbLine
 10
116.8800003529
 20
272.4900006151
 30
0.0
 11
116.8700001836
 21
272.4900006151
 31
0.0
  0
LINE
  5
25E
330
1F
100
AcDbEntity
  8
0
  6
Continuous
 62
     7
370
    25
100
AcDbLine
 10
116.9749997258
 20
182.5049995279
 30
0.0
 11
116.9749997258
 21
272.4900006151
 31
0.0
  0
LINE
  5
25F
330
1F
100
AcDbEntity
  8
0
  6
Continuous
 62
     7
370
    25
100
AcDbLine
 10
116.9749997258
 20
182.5049995279
 30
0.0
 11
116.8800003529
 21
182.5049995279
 31
0.0
  0
LINE
  5
260
330
1F
100
AcDbEntity
  8
0
  6
Continuous
 62
     7
370
    25
100
AcDbLine
 10
116.9749997258
 20
272.4900006151
 30
0.0
 11
116.8800003529
 21
272.4900006151
 31
0.0
  0
LINE
  5
261
330
1F
100
AcDbEntity
  8
0
  6
Continuous
 62
     7
370
    25
100
AcDbLine
 10
116.8159313202
 20
182.5049995279
 30
0.0
 11
116.8149999976
 21
182.5049995279
 31
0.0
  0
LINE
  5
262
330
1F
100
AcDbEntity
  8
0
  6
Continuous
 62
     7
370
    25
100
AcDbLine
 10
116.8159313202
 20
272.4900006151
 30
0.0
 11
116.8149999976
 21
272.4900006151
 31
0.0
  0
LINE
  5
263
330
1F
100
AcDbEntity
  8
0
  6
Continuous
 62
     7
370
    25
100
AcDbLine
 10
115.9313730597
 20
207.1400000548
 30
0.0
 11
115.9313730597
 21
207.5399993753
 31
0.0
  0
LINE
  5
264
330
1F
100
AcDbEntity
  8
0
  6
Continuous
 62
     7
370
    25
100
AcDbLine
 10
115.9313730597
 20
272.3399995661
 30
0.0
 11
115.9313730597
 21
272.4900006151
 31
0.0
  0
LINE
  5
265
330
1F
100
AcDbEntity
  8
0
  6
Continuous
 62
     7
370
    25
100
AcDbLine
 10
116.8149999976
 20
182.5049995279
 30
0.0
 11
116.4750002027
 21
182.5049995279
 31
0.0
  0
LINE
  5
266
330
1F
100
AcDbEntity
  8
0
  6
Continuous
 62
     7
370
    25
100
AcDbLine
 10
116.8149999976
 20
272.4900006151
 30
0.0
 11
115.9313730597
 21
272.4900006151
 31
0.0
  0
LINE
  5
267
330
1F
100
AcDbEntity
  8
0
  6
Continuous
 62
     7
370
    25
100
AcDbLine
 10
115.917747438
 20
207.1400000548
 30
0.0
 11
115.917747438
 21
207.5399993753
 31
0.0
  0
LINE
  5
268
330
1F
100
AcDbEntity
  8
0
  6
Continuous
 62
     7
370
    25
100
AcDbLine
 10
115.917747438
 20
272.3399995661
 30
0.0
 11
115.917747438
 21
272.4900006151
 31
0.0
  0
LINE
  5
269
330
1F
100
AcDbEntity
  8
0
  6
Continuous
 62
     7
370
    25
100
AcDbLine
 10
115.9313730597
 20
272.4900006151
 30
0.0
 11
115.917747438
 21
272.4900006151
 31
0.0
  0
LINE
  5
26A
330
1F
100
AcDbEntity
  8
0
  6
Continuous
 62
     7
370
    25
100
AcDbLine
 10
115.917747438
 20
272.4900006151
 30
0.0
 11
115.9174777269
 21
272.4900006151
 31
0.0
  0
LINE
  5
26B
330
1F
100
AcDbEntity
  8
0
  6
Continuous
 62
     8
370
    25
100
AcDbLine
 10
72.5835002661
 20
176.5650003052
 30
0.0
 11
74.4665004015
 21
176.5650003052
 31
0.0
  0
LINE
  5
26C
330
1F
100
AcDbEntity
  8
0
  6
Continuous
 62
     8
370
    25
100
AcDbLine
 10
116.4164997339
 20
176.5650003052
 30
0.0
 11
114.5334995985
 21
176.5650003052
 31
0.0
  0
LINE
  5
26D
330
1F
100
AcDbEntity
  8
0
  6
Continuous
 62
     8
370
    25
100
AcDbLine
 10
72.5835002661
 20
176.6596405602
 30
0.0
 11
74.4665004015
 21
176.6596405602
 31
0.0
  0
LINE
  5
26E
330
1F
100
AcDbEntity
  8
0
  6
Continuous
 62
     8
370
    25
100
AcDbLine
 10
116.4164997339
 20
176.6596405602
 30
0.0
 11
114.5334995985
 21
176.6596405602
 31
0.0
  0
LINE
  5
26F
330
1F
100
AcDbEntity
  8
0
  6
Continuous
 62
     8
370
    25
100
AcDbLine
 10
116.3953818083
 20
176.7118095255
 30
0.0
 11
114.5546175241
 21
176.7118095255
 31
0.0
  0
LINE
  5
270
330
1F
100
AcDbEntity
  8
0
  6
Continuous
 62
     8
370
    25
100
AcDbLine
 10
72.6046181917
 20
176.7118095255
 30
0.0
 11
74.4453824759
 21
176.7118095255
 31
0.0
  0
LINE
  5
271
330
1F
100
AcDbEntity
  8
0
  6
Continuous
 62
     8
370
    25
100
AcDbLine
 10
72.8872038126
 20
177.0036696291
 30
0.0
 11
74.162796855
 21
177.0036696291
 31
0.0
  0
LINE
  5
272
330
1F
100
AcDbEntity
  8
0
  6
Continuous
 62
     8
370
    25
100
AcDbLine
 10
116.1127961874
 20
177.0036696291
 30
0.0
 11
114.837203145
 21
177.0036696291
 31
0.0
  0
LINE
  5
273
330
1F
100
AcDbEntity
  8
0
  6
Continuous
 62
     7
370
    25
100
AcDbLine
 10
112.474999547
 20
96.4399996543
 30
0.0
 11
112.474999547
 21
94.6582320476
 31
0.0
  0
LINE
  5
274
330
1F
100
AcDbEntity
  8
0
  6
Continuous
 62
     7
370
    25
100
AcDbLine
 10
113.724999845
 20
94.6545782828
 30
0.0
 11
113.724999845
 21
96.4399996543
 31
0.0
  0
LINE
  5
275
330
1F
100
AcDbEntity
  8
0
  6
Continuous
 62
     7
370
    25
100
AcDbLine
 10
76.9014425278
 20
94.9900004411
 30
0.0
 11
75.0250003934
 21
94.9900004411
 31
0.0
  0
LINE
  5
276
330
1F
100
AcDbEntity
  8
0
  6
Continuous
 62
     7
370
    25
100
AcDbLine
 10
110.851442039
 20
94.9900004411
 30
0.0
 11
78.1500003934
 21
94.9900004411
 31
0.0
  0
LINE
  5
277
330
1F
100
AcDbEntity
  8
0
  6
Continuous
 62
     7
370
    25
100
AcDbLine
 10
113.9749996066
 20
94.9900004411
 30
0.0
 11
113.724999845
 21
94.9900004411
 31
0.0
  0
LINE
  5
278
330
1F
100
AcDbEntity
  8
0
  6
Continuous
 62
     7
370
    25
100
AcDbLine
 10
112.474999547
 20
94.9900004411
 30
0.0
 11
112.0999999046
 21
94.9900004411
 31
0.0
  0
LINE
  5
279
330
1F
100
AcDbEntity
  8
0
  6
Continuous
 62
     7
370
    25
100
AcDbLine
 10
75.0250003934
 20
93.4900003815
 30
0.0
 11
113.9749996066
 21
93.4900003815
 31
0.0
  0
LINE
  5
27A
330
1F
100
AcDbEntity
  8
0
  6
Continuous
 62
     7
370
    25
100
AcDbLine
 10
76.9000000954
 20
96.4399996543
 30
0.0
 11
76.9000000954
 21
94.9887994075
 31
0.0
  0
LINE
  5
27B
330
1F
100
AcDbEntity
  8
0
  6
Continuous
 62
     7
370
    25
100
AcDbLine
 10
78.1500003934
 20
94.9900004411
 30
0.0
 11
78.1500003934
 21
96.4399996543
 31
0.0
  0
LINE
  5
27C
330
1F
100
AcDbEntity
  8
0
  6
Continuous
 62
     7
370
    25
100
AcDbLine
 10
110.8499996066
 20
96.4399996543
 30
0.0
 11
110.8499996066
 21
94.9887994075
 31
0.0
  0
LINE
  5
27D
330
1F
100
AcDbEntity
  8
0
  6
Continuous
 62
     7
370
    25
100
AcDbLine
 10
112.0999999046
 20
94.9900004411
 30
0.0
 11
112.0999999046
 21
96.4399996543
 31
0.0
  0
LINE
  5
27E
330
1F
100
AcDbEntity
  8
0
  6
Continuous
 62
     7
370
    25
100
AcDbLine
 10
116.6499994397
 20
99.8899999404
 30
0.0
 11
72.3500005603
 21
99.8899999404
 31
0.0
  0
LINE
  5
27F
330
1F
100
AcDbEntity
  8
0
  6
Continuous
 62
     7
370
    25
100
AcDbLine
 10
72.3500005603
 20
125.8899997318
 30
0.0
 11
116.6499994397
 21
125.8899997318
 31
0.0
  0
LINE
  5
280
330
1F
100
AcDbEntity
  8
0
  6
Continuous
 62
     7
370
    25
100
AcDbLine
 10
72.3500005603
 20
99.8899999404
 30
0.0
 11
72.3500005603
 21
125.8899997318
 31
0.0
  0
LINE
  5
281
330
1F
100
AcDbEntity
  8
0
  6
Continuous
 62
     7
370
    25
100
AcDbLine
 10
116.6499994397
 20
125.8899997318
 30
0.0
 11
116.6499994397
 21
99.8899999404
 31
0.0
  0
CIRCLE
  5
282
330
1F
100
AcDbEntity
  8
0
  6
Continuous
 62
     7
370
    25
100
AcDbCircle
 10
113.0999999675
 20
94.24
 30
0.0
 40
0.75
  0
SPLINE
  5
283
330
1F
100
AcDbEntity
  8
0
  6
Continuous
 62
     7
370
    25
100
AcDbSpline
210
0.0
220
0.0
230
1.0
 70
     8
 71
     3
 72
    23
 73
    19
 74
     0
 42
0.000000001
 43
0.00000001
 40
0.0
 40
0.0
 40
0.0
 40
0.0
 40
0.0847278238301138
 40
0.1690971393692745
 40
0.226215819956505
 40
0.2849765661091427
 40
0.3432009562028188
 40
0.4029900659604064
 40
0.4672124627457595
 40
0.5320102824871364
 40
0.6024269487471596
 40
0.6579469815317259
 40
0.7149580615114979
 40
0.77333637432419
 40
0.833337634120011
 40
0.9223590647880014
 40
0.9665038364020992
 40
0.9999999999999999
 40
0.9999999999999999
 40
0.9999999999999999
 40
0.9999999999999999
 10
112.0999999046326
 20
94.99000044107436
 30
0.0
 10
112.0949913456176
 20
94.98580219771623
 30
0.0
 10
112.0849954202709
 20
94.9774234749998
 30
0.0
 10
112.0195402566744
 20
94.92388716985101
 30
0.0
 10
111.9438824479132
 20
94.86529114561417
 30
0.0
 10
111.8653063740006
 20
94.80830569166406
 30
0.0
 10
111.774535268275
 20
94.7495277789182
 30
0.0
 10
111.6691567449622
 20
94.69399432505426
 30
0.0
 10
111.544854293656
 20
94.65317430950768
 30
0.0
 10
111.4019040032149
 20
94.6529656368949
 30
0.0
 10
111.276664047169
 20
94.69586898403693
 30
0.0
 10
111.1717109304712
 20
94.75192503092308
 30
0.0
 10
111.0840318836447
 20
94.80879517202291
 30
0.0
 10
111.0050477948696
 20
94.86605330615471
 30
0.0
 10
110.9262850962777
 20
94.92720324836645
 30
0.0
 10
110.8750868161519
 20
94.96915001583504
 30
0.0
 10
110.8520774329149
 20
94.98826749064057
 30
0.0
 10
110.8516335435449
 20
94.98863804941406
 30
0.0
 10
110.8514420390129
 20
94.98879791736603
 30
0.0
  0
SPLINE
  5
284
330
1F
100
AcDbEntity
  8
0
  6
Continuous
 62
     7
370
    25
100
AcDbSpline
210
0.0
220
0.0
230
1.0
 70
     8
 71
     3
 72
    23
 73
    19
 74
     0
 42
0.000000001
 43
0.00000001
 40
0.0
 40
0.0
 40
0.0
 40
0.0
 40
0.012296829288374
 40
0.0911704722490751
 40
0.1711912029192714
 40
0.2286036396513912
 40
0.2876671445587646
 40
0.3461432176367805
 40
0.4062282048053937
 40
0.4698572624091492
 40
0.5340285491816238
 40
0.6052652509257952
 40
0.6614962055935424
 40
0.719244089894579
 40
0.7781600605078495
 40
0.8387779426551554
 40
0.9269079425428949
 40
1.0
 40
1.0
 40
1.0
 40
1.0
 10
76.90144252777101
 20
94.98879791736603
 30
0.0
 10
76.90103709322682
 20
94.98913595009542
 30
0.0
 10
76.89803114283156
 20
94.99164217367971
 30
0.0
 10
76.92380107989692
 20
94.97011677218204
 30
0.0
 10
76.98346655199884
 20
94.92154611557876
 30
0.0
 10
77.05906945396973
 20
94.86304985234418
 30
0.0
 10
77.1382913224549
 20
94.80581078945869
 30
0.0
 10
77.23005778113301
 20
94.74678377996348
 30
0.0
 10
77.33601380363808
 20
94.69171921400107
 30
0.0
 10
77.46040547115621
 20
94.6523877924961
 30
0.0
 10
77.60297697923659
 20
94.65389857405822
 30
0.0
 10
77.72822600460903
 20
94.69801334543
 30
0.0
 10
77.83384135762924
 20
94.75523609310675
 30
0.0
 10
77.92180885448612
 20
94.81283331723654
 30
0.0
 10
78.0009238539472
 20
94.87057028558038
 30
0.0
 10
78.07775435666
 20
94.93044632147976
 30
0.0
 10
78.13802261579968
 20
94.97997872529764
 30
0.0
 10
78.14626403969883
 20
94.98687426224392
 30
0.0
 10
78.15000039339067
 20
94.99000044107436
 30
0.0
  0
LINE
  5
285
330
1F
100
AcDbEntity
  8
0
  6
Continuous
 62
     7
370
    25
100
AcDbLine
 10
113.9749996066
 20
94.9900004411
 30
0.0
 11
113.9749996066
 21
93.4900003815
 31
0.0
  0
LINE
  5
286
330
1F
100
AcDbEntity
  8
0
  6
Continuous
 62
     7
370
    25
100
AcDbLine
 10
75.0250003934
 20
94.2399996662
 30
0.0
 11
75.0250003934
 21
93.4900003815
 31
0.0
  0
LINE
  5
287
330
1F
100
AcDbEntity
  8
0
  6
Continuous
 62
     7
370
    25
100
AcDbLine
 10
75.0250003934
 20
94.9900004411
 30
0.0
 11
75.0250003934
 21
94.2399996662
 31
0.0
  0
LINE
  5
288
330
1F
100
AcDbEntity
  8
0
  6
Continuous
 62
     7
370
    25
100
AcDbLine
 10
116.4750002027
 20
96.4399996543
 30
0.0
 11
72.5249997973
 21
96.4399996543
 31
0.0
  0
LINE
  5
289
330
1F
100
AcDbEntity
  8
0
  6
Continuous
 62
     7
370
    25
100
AcDbLine
 10
72.5249997973
 20
99.8899999404
 30
0.0
 11
116.4750002027
 21
99.8899999404
 31
0.0
  0
LINE
  5
28A
330
1F
100
AcDbEntity
  8
0
  6
Continuous
 62
     7
370
    25
100
AcDbLine
 10
116.4750002027
 20
96.4399996543
 30
0.0
 11
116.4750002027
 21
99.8899999404
 31
0.0
  0
LINE
  5
28B
330
1F
100
AcDbEntity
  8
0
  6
Continuous
 62
     7
370
    25
100
AcDbLine
 10
72.5249997973
 20
96.4399996543
 30
0.0
 11
72.5249997973
 21
99.8899999404
 31
0.0
  0
LINE
  5
28C
330
1F
100
AcDbEntity
  8
0
  6
Continuous
 62
     7
370
    25
100
AcDbLine
 10
72.3500005603
 20
127.8900000596
 30
0.0
 11
116.6499994397
 21
127.8900000596
 31
0.0
  0
LINE
  5
28D
330
1F
100
AcDbEntity
  8
0
  6
Continuous
 62
     7
370
    25
100
AcDbLine
 10
72.3500005603
 20
127.8900000596
 30
0.0
 11
72.3500005603
 21
125.8899997318
 31
0.0
  0
LINE
  5
28E
330
1F
100
AcDbEntity
  8
0
  6
Continuous
 62
     7
370
    25
100
AcDbLine
 10
116.6499994397
 20
127.8900000596
 30
0.0
 11
116.6499994397
 21
125.8899997318
 31
0.0
  0
LINE
  5
28F
330
1F
100
AcDbEntity
  8
0
  6
Continuous
 62
     7
370
    25
100
AcDbLine
 10
72.2750000358
 20
99.9149996185
 30
0.0
 11
72.2750000358
 21
101.39
 31
0.0
  0
LINE
  5
290
330
1F
100
AcDbEntity
  8
0
  6
Continuous
 62
     7
370
    25
100
AcDbLine
 10
72.2750000358
 20
101.39
 30
0.0
 11
72.3500005603
 21
101.39
 31
0.0
  0
LINE
  5
291
330
1F
100
AcDbEntity
  8
0
  6
Continuous
 62
     7
370
    25
100
AcDbLine
 10
72.3500005603
 20
99.8899999404
 30
0.0
 11
72.3500005603
 21
99.8650002623
 31
0.0
  0
ARC
  5
292
330
1F
100
AcDbEntity
  8
0
  6
Continuous
 62
     7
370
    25
100
AcDbCircle
 10
72.3990734406
 20
99.8745810737
 30
0.0
 40
0.049999995000013
100
AcDbArc
 50
191.0474249458
 51
271.0618139955
  0
LINE
  5
293
330
1F
100
AcDbEntity
  8
0
  6
Continuous
 62
     7
370
    25
100
AcDbLine
 10
72.3999999166
 20
99.8245898032
 30
0.0
 11
72.5000001192
 21
99.8245898032
 31
0.0
  0
ARC
  5
294
330
1F
100
AcDbEntity
  8
0
  6
Continuous
 62
     7
370
    25
100
AcDbCircle
 10
72.5009265344
 20
99.8745810737
 30
0.0
 40
0.0499999950000134
100
AcDbArc
 50
268.9381860046
 51
298.7814548012
  0
LINE
  5
295
330
1F
100
AcDbEntity
  8
0
  6
Continuous
 62
     7
370
    25
100
AcDbLine
 10
72.5249997973
 20
99.7645902777
 30
0.0
 11
72.175409615
 21
99.7645902777
 31
0.0
  0
ARC
  5
296
330
1F
100
AcDbEntity
  8
0
  6
Continuous
 62
     7
370
    25
100
AcDbCircle
 10
72.174998323
 20
99.714591364
 30
0.0
 40
0.0499999950000003
100
AcDbArc
 50
89.5282858826
 51
179.5282859575
  0
LINE
  5
297
330
1F
100
AcDbEntity
  8
0
  6
Continuous
 62
     7
370
    25
100
AcDbLine
 10
72.1250004768
 20
99.7150036836
 30
0.0
 11
72.1250004768
 21
98.9652040744
 31
0.0
  0
ARC
  5
298
330
1F
100
AcDbEntity
  8
0
  6
Continuous
 62
     7
370
    25
100
AcDbCircle
 10
72.1750000175
 20
98.9652038215
 30
0.0
 40
0.0499999950000074
100
AcDbArc
 50
179.9999999504
 51
258.4630409672
  0
ARC
  5
299
330
1F
100
AcDbEntity
  8
0
  6
Continuous
 62
     7
370
    25
100
AcDbCircle
 10
72.1600000166
 20
98.891719137
 30
0.0
 40
0.0249999975000148
100
AcDbArc
 50
344.3090402466
 51
78.4630354664
  0
ARC
  5
29A
330
1F
100
AcDbEntity
  8
0
  6
Continuous
 62
     7
370
    25
100
AcDbCircle
 10
72.1359316619
 20
98.8984803628
 30
0.0
 40
0.049999994999991
100
AcDbArc
 50
275.8375897921
 51
344.3090250343
  0
ARC
  5
29B
330
1F
100
AcDbEntity
  8
0
  6
Continuous
 62
     7
370
    25
100
AcDbCircle
 10
72.140000021
 20
98.858687799
 30
0.0
 40
0.0099999990000015
100
AcDbArc
 50
180.0
 51
275.8375885099
  0
LINE
  5
29C
330
1F
100
AcDbEntity
  8
0
  6
Continuous
 62
     7
370
    25
100
AcDbLine
 10
72.1299998164
 20
98.8586875939
 30
0.0
 11
72.1299998164
 21
98.8652038717
 31
0.0
  0
ARC
  5
29D
330
1F
100
AcDbEntity
  8
0
  6
Continuous
 62
     7
370
    25
100
AcDbCircle
 10
72.120000023
 20
98.8652038315
 30
0.0
 40
0.0099999990000157
100
AcDbArc
 50
0.0
 51
90.0
  0
LINE
  5
29E
330
1F
100
AcDbEntity
  8
0
  6
Continuous
 62
     7
370
    25
100
AcDbLine
 10
72.1199996471
 20
98.875204041
 30
0.0
 11
72.0250002742
 21
98.875204041
 31
0.0
  0
LINE
  5
29F
330
1F
100
AcDbEntity
  8
0
  6
Continuous
 62
     7
370
    25
100
AcDbLine
 10
72.0250002742
 20
98.875204041
 30
0.0
 11
72.0250002742
 21
99.8650002623
 31
0.0
  0
LINE
  5
2A0
330
1F
100
AcDbEntity
  8
0
  6
Continuous
 62
     7
370
    25
100
AcDbLine
 10
72.0250002742
 20
99.8650002623
 30
0.0
 11
72.2250006795
 21
99.8650002623
 31
0.0
  0
ARC
  5
2A1
330
1F
100
AcDbEntity
  8
0
  6
Continuous
 62
     7
370
    25
100
AcDbCircle
 10
72.2250000125
 20
99.9149999975
 30
0.0
 40
0.0499999950000074
100
AcDbArc
 50
270.0
 51
0.0
  0
LINE
  5
2A2
330
1F
100
AcDbEntity
  8
0
  6
Continuous
 62
     7
370
    25
100
AcDbLine
 10
116.7749993205
 20
99.8650002623
 30
0.0
 11
116.9749997258
 21
99.8650002623
 31
0.0
  0
LINE
  5
2A3
330
1F
100
AcDbEntity
  8
0
  6
Continuous
 62
     7
370
    25
100
AcDbLine
 10
116.9749997258
 20
99.8650002623
 30
0.0
 11
116.9749997258
 21
98.875204041
 31
0.0
  0
LINE
  5
2A4
330
1F
100
AcDbEntity
  8
0
  6
Continuous
 62
     7
370
    25
100
AcDbLine
 10
116.9749997258
 20
98.875204041
 30
0.0
 11
116.8800003529
 21
98.875204041
 31
0.0
  0
ARC
  5
2A5
330
1F
100
AcDbEntity
  8
0
  6
Continuous
 62
     7
370
    25
100
AcDbCircle
 10
116.879999977
 20
98.8652038315
 30
0.0
 40
0.0099999990000157
100
AcDbArc
 50
90.0
 51
180.0
  0
LINE
  5
2A6
330
1F
100
AcDbEntity
  8
0
  6
Continuous
 62
     7
370
    25
100
AcDbLine
 10
116.8700001836
 20
98.8652038717
 30
0.0
 11
116.8700001836
 21
98.8586875939
 31
0.0
  0
ARC
  5
2A7
330
1F
100
AcDbEntity
  8
0
  6
Continuous
 62
     7
370
    25
100
AcDbCircle
 10
116.859999979
 20
98.858687799
 30
0.0
 40
0.0099999989999873
100
AcDbArc
 50
264.1624114901
 51
0.0
  0
ARC
  5
2A8
330
1F
100
AcDbEntity
  8
0
  6
Continuous
 62
     7
370
    25
100
AcDbCircle
 10
116.8640683381
 20
98.8984803628
 30
0.0
 40
0.0499999950000047
100
AcDbArc
 50
195.6909749657
 51
264.1624102079
  0
ARC
  5
2A9
330
1F
100
AcDbEntity
  8
0
  6
Continuous
 62
     7
370
    25
100
AcDbCircle
 10
116.8399999834
 20
98.891719137
 30
0.0
 40
0.0249999975000148
100
AcDbArc
 50
101.5369645336
 51
195.6909597534
  0
ARC
  5
2AA
330
1F
100
AcDbEntity
  8
0
  6
Continuous
 62
     7
370
    25
100
AcDbCircle
 10
116.8249999825
 20
98.9652038215
 30
0.0
 40
0.0499999950000074
100
AcDbArc
 50
281.5369590328
 51
0.0000000496
  0
LINE
  5
2AB
330
1F
100
AcDbEntity
  8
0
  6
Continuous
 62
     7
370
    25
100
AcDbLine
 10
116.8749995232
 20
98.9652040744
 30
0.0
 11
116.8749995232
 21
99.7150036836
 31
0.0
  0
ARC
  5
2AC
330
1F
100
AcDbEntity
  8
0
  6
Continuous
 62
     7
370
    25
100
AcDbCircle
 10
116.825001677
 20
99.714591364
 30
0.0
 40
0.0499999950000004
100
AcDbArc
 50
0.4717140425
 51
90.4717141174
  0
LINE
  5
2AD
330
1F
100
AcDbEntity
  8
0
  6
Continuous
 62
     7
370
    25
100
AcDbLine
 10
116.824590385
 20
99.7645902777
 30
0.0
 11
116.4750002027
 21
99.7645902777
 31
0.0
  0
ARC
  5
2AE
330
1F
100
AcDbEntity
  8
0
  6
Continuous
 62
     7
370
    25
100
AcDbCircle
 10
116.4990734656
 20
99.8745810737
 30
0.0
 40
0.0499999950000134
100
AcDbArc
 50
241.2185451989
 51
271.0618139954
  0
LINE
  5
2AF
330
1F
100
AcDbEntity
  8
0
  6
Continuous
 62
     7
370
    25
100
AcDbLine
 10
116.4999998808
 20
99.8245898032
 30
0.0
 11
116.6000000834
 21
99.8245898032
 31
0.0
  0
ARC
  5
2B0
330
1F
100
AcDbEntity
  8
0
  6
Continuous
 62
     7
370
    25
100
AcDbCircle
 10
116.6009265594
 20
99.8745810737
 30
0.0
 40
0.049999995000013
100
AcDbArc
 50
268.9381860045
 51
348.9525750542
  0
LINE
  5
2B1
330
1F
100
AcDbEntity
  8
0
  6
Continuous
 62
     7
370
    25
100
AcDbLine
 10
116.6499994397
 20
99.8650002623
 30
0.0
 11
116.6499994397
 21
99.8899999404
 31
0.0
  0
LINE
  5
2B2
330
1F
100
AcDbEntity
  8
0
  6
Continuous
 62
     7
370
    25
100
AcDbLine
 10
116.6499994397
 20
101.39
 30
0.0
 11
116.7249999642
 21
101.39
 31
0.0
  0
LINE
  5
2B3
330
1F
100
AcDbEntity
  8
0
  6
Continuous
 62
     7
370
    25
100
AcDbLine
 10
116.7249999642
 20
101.39
 30
0.0
 11
116.7249999642
 21
99.9149996185
 31
0.0
  0
ARC
  5
2B4
330
1F
100
AcDbEntity
  8
0
  6
Continuous
 62
     7
370
    25
100
AcDbCircle
 10
116.7749999875
 20
99.9149999975
 30
0.0
 40
0.0499999950000074
100
AcDbArc
 50
180.0
 51
270.0
  0
LINE
  5
2B5
330
1F
100
AcDbEntity
  8
0
  6
Continuous
 62
     7
370
    25
100
AcDbLine
 10
257.1999995589
 20
214.421115706
 30
0.0
 11
257.1999995589
 21
212.5400005674
 31
0.0
  0
LINE
  5
2B6
330
1F
100
AcDbEntity
  8
0
  6
Continuous
 62
     7
370
    25
100
AcDbLine
 10
257.1999995589
 20
259.2210112906
 30
0.0
 11
257.1999995589
 21
215.6589879489
 31
0.0
  0
LINE
  5
2B7
330
1F
100
AcDbEntity
  8
0
  6
Continuous
 62
     7
370
    25
100
AcDbLine
 10
257.1999995589
 20
262.3400001621
 30
0.0
 11
257.1999995589
 21
260.4588835335
 31
0.0
  0
LINE
  5
2B8
330
1F
100
AcDbEntity
  8
0
  6
Continuous
 62
     7
370
    25
100
AcDbLine
 10
258.6999996185
 20
212.5400005674
 30
0.0
 11
258.6999996185
 21
262.3400001621
 31
0.0
  0
LINE
  5
2B9
330
1F
100
AcDbEntity
  8
0
  6
Continuous
 62
     7
370
    25
100
AcDbLine
 10
255.7500003457
 20
259.2150001621
 30
0.0
 11
257.2050018787
 21
259.2150001621
 31
0.0
  0
LINE
  5
2BA
330
1F
100
AcDbEntity
  8
0
  6
Continuous
 62
     7
370
    25
100
AcDbLine
 10
257.2050883055
 20
260.46499897
 30
0.0
 11
255.7500003457
 21
260.46499897
 31
0.0
  0
LINE
  5
2BB
330
1F
100
AcDbEntity
  8
0
  6
Continuous
 62
     7
370
    25
100
AcDbLine
 10
255.7500003457
 20
214.4150002694
 30
0.0
 11
257.2050883055
 21
214.4150002694
 31
0.0
  0
LINE
  5
2BC
330
1F
100
AcDbEntity
  8
0
  6
Continuous
 62
     7
370
    25
100
AcDbLine
 10
257.2050018787
 20
215.6649998224
 30
0.0
 11
255.7500003457
 21
215.6649998224
 31
0.0
  0
LINE
  5
2BD
330
1F
100
AcDbEntity
  8
0
  6
Continuous
 62
     7
370
    25
100
AcDbLine
 10
255.7500003457
 20
204.0150000548
 30
0.0
 11
257.5299172282
 21
204.0150000548
 31
0.0
  0
LINE
  5
2BE
330
1F
100
AcDbEntity
  8
0
  6
Continuous
 62
     7
370
    25
100
AcDbLine
 10
257.530042398
 20
205.2650003529
 30
0.0
 11
255.7500003457
 21
205.2650003529
 31
0.0
  0
LINE
  5
2BF
330
1F
100
AcDbEntity
  8
0
  6
Continuous
 62
     7
370
    25
100
AcDbLine
 10
257.5299172282
 20
204.0150000548
 30
0.0
 11
257.530042398
 21
204.0150000548
 31
0.0
  0
LINE
  5
2C0
330
1F
100
AcDbEntity
  8
0
  6
Continuous
 62
     7
370
    25
100
AcDbLine
 10
250.3865002275
 20
176.5650003052
 30
0.0
 11
250.3865002275
 21
176.6596405602
 31
0.0
  0
LINE
  5
2C1
330
1F
100
AcDbEntity
  8
0
  6
Continuous
 62
     7
370
    25
100
AcDbLine
 10
248.503500092
 20
176.6596405602
 30
0.0
 11
248.503500092
 21
176.5650003052
 31
0.0
  0
ARC
  5
2C2
330
1F
100
AcDbEntity
  8
0
  6
Continuous
 62
     7
370
    25
100
AcDbCircle
 10
250.3115
 20
176.565
 30
0.0
 40
0.0750000000000171
100
AcDbArc
 50
270.0
 51
0.0
  0
ARC
  5
2C3
330
1F
100
AcDbEntity
  8
0
  6
Continuous
 62
     7
370
    25
100
AcDbCircle
 10
248.5785
 20
176.565
 30
0.0
 40
0.0750000000000455
100
AcDbArc
 50
180.0
 51
270.0
  0
ARC
  5
2C4
330
1F
100
AcDbEntity
  8
0
  6
Continuous
 62
     7
370
    25
100
AcDbCircle
 10
250.3115
 20
176.6596408368
 30
0.0
 40
0.0749999999999886
100
AcDbArc
 50
0.0
 51
44.0751062253
  0
ARC
  5
2C5
330
1F
100
AcDbEntity
  8
0
  6
Continuous
 62
     7
370
    25
100
AcDbCircle
 10
248.5785
 20
176.6596408368
 30
0.0
 40
0.0750000000000455
100
AcDbArc
 50
135.9248937747
 51
180.0
  0
LINE
  5
2C6
330
1F
100
AcDbEntity
  8
0
  6
Continuous
 62
     7
370
    25
100
AcDbLine
 10
250.3653823018
 20
176.7118095255
 30
0.0
 11
250.0827966809
 21
177.0036696291
 31
0.0
  0
LINE
  5
2C7
330
1F
100
AcDbEntity
  8
0
  6
Continuous
 62
     7
370
    25
100
AcDbLine
 10
248.8072036386
 20
177.0036696291
 30
0.0
 11
248.5246180177
 21
176.7118095255
 31
0.0
  0
ARC
  5
2C8
330
1F
100
AcDbEntity
  8
0
  6
Continuous
 62
     7
370
    25
100
AcDbCircle
 10
250.0289145804
 20
176.9515
 30
0.0
 40
0.0750000000000171
100
AcDbArc
 50
44.0751062253
 51
90.0
  0
ARC
  5
2C9
330
1F
100
AcDbEntity
  8
0
  6
Continuous
 62
     7
370
    25
100
AcDbCircle
 10
248.8610854196
 20
176.9515
 30
0.0
 40
0.0750000000000171
100
AcDbArc
 50
90.0
 51
135.9248937747
  0
LINE
  5
2CA
330
1F
100
AcDbEntity
  8
0
  6
Continuous
 62
     7
370
    25
100
AcDbLine
 10
249.8606918931
 20
177.0265011883
 30
0.0
 11
249.8606918931
 21
177.1874992943
 31
0.0
  0
LINE
  5
2CB
330
1F
100
AcDbEntity
  8
0
  6
Continuous
 62
     7
370
    25
100
AcDbLine
 10
249.0293076813
 20
177.1874992943
 30
0.0
 11
249.0293076813
 21
177.0265011883
 31
0.0
  0
LINE
  5
2CC
330
1F
100
AcDbEntity
  8
0
  6
Continuous
 62
     7
370
    25
100
AcDbLine
 10
249.6909997046
 20
177.1874992943
 30
0.0
 11
249.6909997046
 21
178.1049995518
 31
0.0
  0
LINE
  5
2CD
330
1F
100
AcDbEntity
  8
0
  6
Continuous
 62
     7
370
    25
100
AcDbLine
 10
249.1989998698
 20
178.1049995518
 30
0.0
 11
249.1989998698
 21
177.1874992943
 31
0.0
  0
LINE
  5
2CE
330
1F
100
AcDbEntity
  8
0
  6
Continuous
 62
     7
370
    25
100
AcDbLine
 10
253.3413125753
 20
182.5049995279
 30
0.0
 11
253.3413125753
 21
272.4900006151
 31
0.0
  0
LINE
  5
2CF
330
1F
100
AcDbEntity
  8
0
  6
Continuous
 62
     7
370
    25
100
AcDbLine
 10
226.3000002682
 20
282.4900000191
 30
0.0
 11
226.3000002682
 21
272.7400003767
 31
0.0
  0
LINE
  5
2D0
330
1F
100
AcDbEntity
  8
0
  6
Continuous
 62
     7
370
    25
100
AcDbLine
 10
252.3000000596
 20
282.4900000191
 30
0.0
 11
226.3000002682
 21
282.4900000191
 31
0.0
  0
LINE
  5
2D1
330
1F
100
AcDbEntity
  8
0
  6
Continuous
 62
     7
370
    25
100
AcDbLine
 10
252.3000000596
 20
282.4900000191
 30
0.0
 11
252.3000000596
 21
272.7400003767
 31
0.0
  0
LINE
  5
2D2
330
1F
100
AcDbEntity
  8
0
  6
Continuous
 62
     7
370
    25
100
AcDbLine
 10
252.3000000596
 20
272.7400003767
 30
0.0
 11
226.3000002682
 21
272.7400003767
 31
0.0
  0
ARC
  5
2D3
330
1F
100
AcDbEntity
  8
0
  6
Continuous
 62
     7
370
    25
100
AcDbCircle
 10
249.899
 20
281.14
 30
0.0
 40
0.2000000000000455
100
AcDbArc
 50
270.0
 51
90.0
  0
LINE
  5
2D4
330
1F
100
AcDbEntity
  8
0
  6
Continuous
 62
     7
370
    25
100
AcDbLine
 10
246.2989999533
 20
281.3399999237
 30
0.0
 11
249.8989997983
 21
281.3399999237
 31
0.0
  0
ARC
  5
2D5
330
1F
100
AcDbEntity
  8
0
  6
Continuous
 62
     7
370
    25
100
AcDbCircle
 10
246.299
 20
281.14
 30
0.0
 40
0.2000000000000455
100
AcDbArc
 50
90.0
 51
270.0
  0
LINE
  5
2D6
330
1F
100
AcDbEntity
  8
0
  6
Continuous
 62
     7
370
    25
100
AcDbLine
 10
249.8989997983
 20
280.9399991131
 30
0.0
 11
246.2989999533
 21
280.9399991131
 31
0.0
  0
ARC
  5
2D7
330
1F
100
AcDbEntity
  8
0
  6
Continuous
 62
     7
370
    25
100
AcDbCircle
 10
249.899
 20
278.99
 30
0.0
 40
0.2000000000000455
100
AcDbArc
 50
270.0
 51
90.0
  0
LINE
  5
2D8
330
1F
100
AcDbEntity
  8
0
  6
Continuous
 62
     7
370
    25
100
AcDbLine
 10
246.2989999533
 20
279.190000782
 30
0.0
 11
249.8989997983
 21
279.190000782
 31
0.0
  0
ARC
  5
2D9
330
1F
100
AcDbEntity
  8
0
  6
Continuous
 62
     7
370
    25
100
AcDbCircle
 10
246.299
 20
278.99
 30
0.0
 40
0.2000000000000455
100
AcDbArc
 50
90.0
 51
270.0
  0
LINE
  5
2DA
330
1F
100
AcDbEntity
  8
0
  6
Continuous
 62
     7
370
    25
100
AcDbLine
 10
249.8989997983
 20
278.7899999714
 30
0.0
 11
246.2989999533
 21
278.7899999714
 31
0.0
  0
ARC
  5
2DB
330
1F
100
AcDbEntity
  8
0
  6
Continuous
 62
     7
370
    25
100
AcDbCircle
 10
249.899
 20
276.84
 30
0.0
 40
0.2000000000000455
100
AcDbArc
 50
270.0
 51
90.0
  0
LINE
  5
2DC
330
1F
100
AcDbEntity
  8
0
  6
Continuous
 62
     7
370
    25
100
AcDbLine
 10
246.2989999533
 20
277.0400016403
 30
0.0
 11
249.8989997983
 21
277.0400016403
 31
0.0
  0
ARC
  5
2DD
330
1F
100
AcDbEntity
  8
0
  6
Continuous
 62
     7
370
    25
100
AcDbCircle
 10
246.299
 20
276.84
 30
0.0
 40
0.2000000000000455
100
AcDbArc
 50
90.0
 51
270.0
  0
LINE
  5
2DE
330
1F
100
AcDbEntity
  8
0
  6
Continuous
 62
     7
370
    25
100
AcDbLine
 10
249.8989997983
 20
276.6400008297
 30
0.0
 11
246.2989999533
 21
276.6400008297
 31
0.0
  0
ARC
  5
2DF
330
1F
100
AcDbEntity
  8
0
  6
Continuous
 62
     7
370
    25
100
AcDbCircle
 10
249.899
 20
274.69
 30
0.0
 40
0.2000000000000455
100
AcDbArc
 50
270.0
 51
90.0
  0
LINE
  5
2E0
330
1F
100
AcDbEntity
  8
0
  6
Continuous
 62
     7
370
    25
100
AcDbLine
 10
246.2989999533
 20
274.8899995184
 30
0.0
 11
249.8989997983
 21
274.8899995184
 31
0.0
  0
ARC
  5
2E1
330
1F
100
AcDbEntity
  8
0
  6
Continuous
 62
     7
370
    25
100
AcDbCircle
 10
246.299
 20
274.69
 30
0.0
 40
0.2000000000000455
100
AcDbArc
 50
90.0
 51
270.0
  0
LINE
  5
2E2
330
1F
100
AcDbEntity
  8
0
  6
Continuous
 62
     7
370
    25
100
AcDbLine
 10
249.8989997983
 20
274.4899987078
 30
0.0
 11
246.2989999533
 21
274.4899987078
 31
0.0
  0
ARC
  5
2E3
330
1F
100
AcDbEntity
  8
0
  6
Continuous
 62
     7
370
    25
100
AcDbCircle
 10
234.301
 20
281.14
 30
0.0
 40
0.2000000000000455
100
AcDbArc
 50
270.0
 51
90.0
  0
LINE
  5
2E4
330
1F
100
AcDbEntity
  8
0
  6
Continuous
 62
     7
370
    25
100
AcDbLine
 10
233.5509999275
 20
281.3399999237
 30
0.0
 11
234.3009999573
 21
281.3399999237
 31
0.0
  0
ARC
  5
2E5
330
1F
100
AcDbEntity
  8
0
  6
Continuous
 62
     7
370
    25
100
AcDbCircle
 10
233.551
 20
281.14
 30
0.0
 40
0.2000000000000455
100
AcDbArc
 50
90.0
 51
270.0
  0
LINE
  5
2E6
330
1F
100
AcDbEntity
  8
0
  6
Continuous
 62
     7
370
    25
100
AcDbLine
 10
234.3009999573
 20
280.9399991131
 30
0.0
 11
233.5509999275
 21
280.9399991131
 31
0.0
  0
ARC
  5
2E7
330
1F
100
AcDbEntity
  8
0
  6
Continuous
 62
     7
370
    25
100
AcDbCircle
 10
234.301
 20
278.99
 30
0.0
 40
0.2000000000000455
100
AcDbArc
 50
270.0
 51
90.0
  0
LINE
  5
2E8
330
1F
100
AcDbEntity
  8
0
  6
Continuous
 62
     7
370
    25
100
AcDbLine
 10
233.5509999275
 20
279.190000782
 30
0.0
 11
234.3009999573
 21
279.190000782
 31
0.0
  0
ARC
  5
2E9
330
1F
100
AcDbEntity
  8
0
  6
Continuous
 62
     7
370
    25
100
AcDbCircle
 10
233.551
 20
278.99
 30
0.0
 40
0.2000000000000455
100
AcDbArc
 50
90.0
 51
270.0
  0
LINE
  5
2EA
330
1F
100
AcDbEntity
  8
0
  6
Continuous
 62
     7
370
    25
100
AcDbLine
 10
234.3009999573
 20
278.7899999714
 30
0.0
 11
233.5509999275
 21
278.7899999714
 31
0.0
  0
ARC
  5
2EB
330
1F
100
AcDbEntity
  8
0
  6
Continuous
 62
     7
370
    25
100
AcDbCircle
 10
234.301
 20
276.84
 30
0.0
 40
0.2000000000000455
100
AcDbArc
 50
270.0
 51
90.0
  0
LINE
  5
2EC
330
1F
100
AcDbEntity
  8
0
  6
Continuous
 62
     7
370
    25
100
AcDbLine
 10
233.5509999275
 20
277.0400016403
 30
0.0
 11
234.3009999573
 21
277.0400016403
 31
0.0
  0
ARC
  5
2ED
330
1F
100
AcDbEntity
  8
0
  6
Continuous
 62
     7
370
    25
100
AcDbCircle
 10
233.551
 20
276.84
 30
0.0
 40
0.2000000000000455
100
AcDbArc
 50
90.0
 51
270.0
  0
LINE
  5
2EE
330
1F
100
AcDbEntity
  8
0
  6
Continuous
 62
     7
370
    25
100
AcDbLine
 10
234.3009999573
 20
276.6400008297
 30
0.0
 11
233.5509999275
 21
276.6400008297
 31
0.0
  0
ARC
  5
2EF
330
1F
100
AcDbEntity
  8
0
  6
Continuous
 62
     7
370
    25
100
AcDbCircle
 10
234.301
 20
274.69
 30
0.0
 40
0.1999999999999886
100
AcDbArc
 50
270.0
 51
90.0
  0
LINE
  5
2F0
330
1F
100
AcDbEntity
  8
0
  6
Continuous
 62
     7
370
    25
100
AcDbLine
 10
233.5509999275
 20
274.8899995184
 30
0.0
 11
234.3009999573
 21
274.8899995184
 31
0.0
  0
ARC
  5
2F1
330
1F
100
AcDbEntity
  8
0
  6
Continuous
 62
     7
370
    25
100
AcDbCircle
 10
233.551
 20
274.69
 30
0.0
 40
0.2000000000000455
100
AcDbArc
 50
90.0
 51
270.0
  0
LINE
  5
2F2
330
1F
100
AcDbEntity
  8
0
  6
Continuous
 62
     7
370
    25
100
AcDbLine
 10
234.3009999573
 20
274.4899987078
 30
0.0
 11
233.5509999275
 21
274.4899987078
 31
0.0
  0
ARC
  5
2F3
330
1F
100
AcDbEntity
  8
0
  6
Continuous
 62
     7
370
    25
100
AcDbCircle
 10
228.701
 20
281.14
 30
0.0
 40
0.2000000000000455
100
AcDbArc
 50
90.0
 51
270.0
  0
LINE
  5
2F4
330
1F
100
AcDbEntity
  8
0
  6
Continuous
 62
     7
370
    25
100
AcDbLine
 10
232.301000002
 20
280.9399991131
 30
0.0
 11
228.7009997845
 21
280.9399991131
 31
0.0
  0
ARC
  5
2F5
330
1F
100
AcDbEntity
  8
0
  6
Continuous
 62
     7
370
    25
100
AcDbCircle
 10
232.301
 20
281.14
 30
0.0
 40
0.2000000000000455
100
AcDbArc
 50
270.0
 51
90.0
  0
LINE
  5
2F6
330
1F
100
AcDbEntity
  8
0
  6
Continuous
 62
     7
370
    25
100
AcDbLine
 10
228.7009997845
 20
281.3399999237
 30
0.0
 11
232.301000002
 21
281.3399999237
 31
0.0
  0
ARC
  5
2F7
330
1F
100
AcDbEntity
  8
0
  6
Continuous
 62
     7
370
    25
100
AcDbCircle
 10
228.701
 20
278.99
 30
0.0
 40
0.2000000000000455
100
AcDbArc
 50
90.0
 51
270.0
  0
LINE
  5
2F8
330
1F
100
AcDbEntity
  8
0
  6
Continuous
 62
     7
370
    25
100
AcDbLine
 10
232.301000002
 20
278.7899999714
 30
0.0
 11
228.7009997845
 21
278.7899999714
 31
0.0
  0
ARC
  5
2F9
330
1F
100
AcDbEntity
  8
0
  6
Continuous
 62
     7
370
    25
100
AcDbCircle
 10
232.301
 20
278.99
 30
0.0
 40
0.2000000000000455
100
AcDbArc
 50
270.0
 51
90.0
  0
LINE
  5
2FA
330
1F
100
AcDbEntity
  8
0
  6
Continuous
 62
     7
370
    25
100
AcDbLine
 10
228.7009997845
 20
279.190000782
 30
0.0
 11
232.301000002
 21
279.190000782
 31
0.0
  0
ARC
  5
2FB
330
1F
100
AcDbEntity
  8
0
  6
Continuous
 62
     7
370
    25
100
AcDbCircle
 10
228.701
 20
276.84
 30
0.0
 40
0.2000000000000455
100
AcDbArc
 50
90.0
 51
270.0
  0
LINE
  5
2FC
330
1F
100
AcDbEntity
  8
0
  6
Continuous
 62
     7
370
    25
100
AcDbLine
 10
232.301000002
 20
276.6400008297
 30
0.0
 11
228.7009997845
 21
276.6400008297
 31
0.0
  0
ARC
  5
2FD
330
1F
100
AcDbEntity
  8
0
  6
Continuous
 62
     7
370
    25
100
AcDbCircle
 10
232.301
 20
276.84
 30
0.0
 40
0.2000000000000455
100
AcDbArc
 50
270.0
 51
90.0
  0
LINE
  5
2FE
330
1F
100
AcDbEntity
  8
0
  6
Continuous
 62
     7
370
    25
100
AcDbLine
 10
228.7009997845
 20
277.0400016403
 30
0.0
 11
232.301000002
 21
277.0400016403
 31
0.0
  0
ARC
  5
2FF
330
1F
100
AcDbEntity
  8
0
  6
Continuous
 62
     7
370
    25
100
AcDbCircle
 10
228.701
 20
274.69
 30
0.0
 40
0.2000000000000455
100
AcDbArc
 50
90.0
 51
270.0
  0
LINE
  5
300
330
1F
100
AcDbEntity
  8
0
  6
Continuous
 62
     7
370
    25
100
AcDbLine
 10
232.301000002
 20
274.4899987078
 30
0.0
 11
228.7009997845
 21
274.4899987078
 31
0.0
  0
ARC
  5
301
330
1F
100
AcDbEntity
  8
0
  6
Continuous
 62
     7
370
    25
100
AcDbCircle
 10
232.301
 20
274.69
 30
0.0
 40
0.2000000000000455
100
AcDbArc
 50
270.0
 51
90.0
  0
LINE
  5
302
330
1F
100
AcDbEntity
  8
0
  6
Continuous
 62
     7
370
    25
100
AcDbLine
 10
228.7009997845
 20
274.8899995184
 30
0.0
 11
232.301000002
 21
274.8899995184
 31
0.0
  0
LINE
  5
303
330
1F
100
AcDbEntity
  8
0
  6
Continuous
 62
     7
370
    25
100
AcDbLine
 10
255.7500003457
 20
272.3399995661
 30
0.0
 11
253.3413125753
 21
272.3399995661
 31
0.0
  0
LINE
  5
304
330
1F
100
AcDbEntity
  8
0
  6
Continuous
 62
     7
370
    25
100
AcDbLine
 10
255.7500003457
 20
207.5399993753
 30
0.0
 11
255.7500003457
 21
272.3399995661
 31
0.0
  0
LINE
  5
305
330
1F
100
AcDbEntity
  8
0
  6
Continuous
 62
     7
370
    25
100
AcDbLine
 10
255.7500003457
 20
207.5399993753
 30
0.0
 11
253.3413125753
 21
207.5399993753
 31
0.0
  0
SPLINE
  5
306
330
1F
100
AcDbEntity
  8
0
  6
Continuous
 62
     7
370
    25
100
AcDbSpline
210
0.0
220
0.0
230
1.0
 70
     8
 71
     3
 72
    23
 73
    19
 74
     0
 42
0.000000001
 43
0.00000001
 40
0.0
 40
0.0
 40
0.0
 40
0.0
 40
0.0453206065134329
 40
0.122877237825014
 40
0.207165155680738
 40
0.268697100351717
 40
0.33200237854377
 40
0.3773325421454813
 40
0.4235948769448364
 40
0.4849842684514017
 40
0.5467250388190085
 40
0.6243135682131175
 40
0.6846786086046058
 40
0.7467262376229485
 40
0.8083069993527852
 40
0.872127248973856
 40
0.9554096300427146
 40
1.0
 40
1.0
 40
1.0
 40
1.0
 10
257.2050018787384
 20
215.6589879488945
 30
0.0
 10
257.2042218247865
 20
215.6599298482576
 30
0.0
 10
257.2021068735018
 20
215.6624836091394
 30
0.0
 10
257.2400099595124
 20
215.6167819392771
 30
0.0
 10
257.2989610551194
 20
215.5429816644323
 30
0.0
 10
257.3661170590942
 20
215.4526478900474
 30
0.0
 10
257.4229998973285
 20
215.3678045399664
 30
0.0
 10
257.4718982650259
 20
215.2813974045227
 30
0.0
 10
257.5133365398175
 20
215.1879682661678
 30
0.0
 10
257.5412022533785
 20
215.0722797173764
 30
0.0
 10
257.5287669305657
 20
214.9296967034065
 30
0.0
 10
257.4762400918273
 20
214.8034673041292
 30
0.0
 10
257.4117110328004
 20
214.6941618508991
 30
0.0
 10
257.3503805127764
 20
214.6055575058344
 30
0.0
 10
257.2916608613676
 20
214.527990862329
 30
0.0
 10
257.2382622392003
 20
214.4610864136727
 30
0.0
 10
257.2018416312036
 20
214.4172009149431
 30
0.0
 10
257.2042488772756
 20
214.4201035360661
 30
0.0
 10
257.2050883054733
 20
214.4211157059669
 30
0.0
  0
SPLINE
  5
307
330
1F
100
AcDbEntity
  8
0
  6
Continuous
 62
     7
370
    25
100
AcDbSpline
210
0.0
220
0.0
230
1.0
 70
     8
 71
     3
 72
    23
 73
    19
 74
     0
 42
0.000000001
 43
0.00000001
 40
0.0
 40
0.0
 40
0.0
 40
0.0
 40
0.0453206239876173
 40
0.122877277425296
 40
0.2071653883618761
 40
0.2686975695409564
 40
0.332002610973408
 40
0.3773322170955664
 40
0.4235945650930828
 40
0.4849846624946375
 40
0.5467250958437371
 40
0.6243133252460831
 40
0.6846789430702497
 40
0.7467260981646245
 40
0.8083068774628099
 40
0.8721273103710073
 40
0.9554096173215474
 40
1.0
 40
1.0
 40
1.0
 40
1.0
 10
257.2050018787384
 20
259.2210112905503
 30
0.0
 10
257.2042218239715
 20
259.2200696936774
 30
0.0
 10
257.2021068706111
 20
259.2175167530958
 30
0.0
 10
257.2400100085304
 20
259.2632178233395
 30
0.0
 10
257.2989611423439
 20
259.337018997306
 30
0.0
 10
257.3661168230546
 20
259.4273535470859
 30
0.0
 10
257.4229995975313
 20
259.5121961913109
 30
0.0
 10
257.4718985840959
 20
259.5986020143221
 30
0.0
 10
257.5133367177411
 20
259.6920314478816
 30
0.0
 10
257.5412021062257
 20
259.8077202762022
 30
0.0
 10
257.5287670632749
 20
259.9503034068788
 30
0.0
 10
257.4762394464405
 20
260.0765320497196
 30
0.0
 10
257.4117117536038
 20
260.1858388106837
 30
0.0
 10
257.3503801368404
 20
260.2744416766902
 30
0.0
 10
257.2916608312237
 20
260.3520082846062
 30
0.0
 10
257.2382623499427
 20
260.4189139580097
 30
0.0
 10
257.201841616032
 20
260.462798172913
 30
0.0
 10
257.2042488728766
 20
260.4598956647598
 30
0.0
 10
257.2050883054733
 20
260.4588835334778
 30
0.0
  0
LINE
  5
308
330
1F
100
AcDbEntity
  8
0
  6
Continuous
 62
     7
370
    25
100
AcDbLine
 10
257.9500003338
 20
212.5400005674
 30
0.0
 11
258.6999996185
 21
212.5400005674
 31
0.0
  0
LINE
  5
309
330
1F
100
AcDbEntity
  8
0
  6
Continuous
 62
     7
370
    25
100
AcDbLine
 10
257.1999995589
 20
212.5400005674
 30
0.0
 11
257.9500003338
 21
212.5400005674
 31
0.0
  0
LINE
  5
30A
330
1F
100
AcDbEntity
  8
0
  6
Continuous
 62
     7
370
    25
100
AcDbLine
 10
257.1999995589
 20
262.3400001621
 30
0.0
 11
258.6999996185
 21
262.3400001621
 31
0.0
  0
LINE
  5
30B
330
1F
100
AcDbEntity
  8
0
  6
Continuous
 62
     7
370
    25
100
AcDbLine
 10
255.7500003457
 20
181.3399999237
 30
0.0
 11
255.7500003457
 21
207.1400000548
 31
0.0
  0
LINE
  5
30C
330
1F
100
AcDbEntity
  8
0
  6
Continuous
 62
     7
370
    25
100
AcDbLine
 10
255.7500003457
 20
181.3399999237
 30
0.0
 11
252.7999995828
 21
181.3399999237
 31
0.0
  0
LINE
  5
30D
330
1F
100
AcDbEntity
  8
0
  6
Continuous
 62
     7
370
    25
100
AcDbLine
 10
255.7500003457
 20
207.1400000548
 30
0.0
 11
253.3413125753
 21
207.1400000548
 31
0.0
  0
LINE
  5
30E
330
1F
100
AcDbEntity
  8
0
  6
Continuous
 62
     7
370
    25
100
AcDbLine
 10
252.7999995828
 20
181.3399999237
 30
0.0
 11
252.7999995828
 21
182.5049995279
 31
0.0
  0
CIRCLE
  5
30F
330
1F
100
AcDbEntity
  8
0
  6
Continuous
 62
     7
370
    25
100
AcDbCircle
 10
257.95
 20
204.64
 30
0.0
 40
0.75
  0
LINE
  5
310
330
1F
100
AcDbEntity
  8
0
  6
Continuous
 62
     7
370
    25
100
AcDbLine
 10
250.6999997973
 20
177.2549985743
 30
0.0
 11
250.6999997973
 21
182.2549997663
 31
0.0
  0
LINE
  5
311
330
1F
100
AcDbEntity
  8
0
  6
Continuous
 62
     7
370
    25
100
AcDbLine
 10
250.6999997973
 20
177.2549985743
 30
0.0
 11
250.3499998331
 21
177.2549985743
 31
0.0
  0
LINE
  5
312
330
1F
100
AcDbEntity
  8
0
  6
Continuous
 62
     7
370
    25
100
AcDbLine
 10
250.3499998331
 20
177.2549985743
 30
0.0
 11
250.3499998331
 21
182.2549997663
 31
0.0
  0
LINE
  5
313
330
1F
100
AcDbEntity
  8
0
  6
Continuous
 62
     7
370
    25
100
AcDbLine
 10
255.7500003457
 20
282.4900000191
 30
0.0
 11
255.7500003457
 21
272.7400003767
 31
0.0
  0
LINE
  5
314
330
1F
100
AcDbEntity
  8
0
  6
Continuous
 62
     7
370
    25
100
AcDbLine
 10
255.7500003457
 20
282.4900000191
 30
0.0
 11
252.3000000596
 21
282.4900000191
 31
0.0
  0
LINE
  5
315
330
1F
100
AcDbEntity
  8
0
  6
Continuous
 62
     7
370
    25
100
AcDbLine
 10
255.7500003457
 20
272.7400003767
 30
0.0
 11
252.3000000596
 21
272.7400003767
 31
0.0
  0
LINE
  5
316
330
1F
100
AcDbEntity
  8
0
  6
Continuous
 62
     7
370
    25
100
AcDbLine
 10
252.3000000596
 20
272.7400003767
 30
0.0
 11
252.3000000596
 21
272.4900006151
 31
0.0
  0
LINE
  5
317
330
1F
100
AcDbEntity
  8
0
  6
Continuous
 62
     7
370
    25
100
AcDbLine
 10
252.3000000596
 20
182.5049995279
 30
0.0
 11
252.3000000596
 21
182.2549997663
 31
0.0
  0
LINE
  5
318
330
1F
100
AcDbEntity
  8
0
  6
Continuous
 62
     7
370
    25
100
AcDbLine
 10
224.2999999404
 20
182.2549997663
 30
0.0
 11
252.3000000596
 21
182.2549997663
 31
0.0
  0
LINE
  5
319
330
1F
100
AcDbEntity
  8
0
  6
Continuous
 62
     7
370
    25
100
AcDbLine
 10
224.2999999404
 20
182.2549997663
 30
0.0
 11
224.2999999404
 21
272.7400003767
 31
0.0
  0
LINE
  5
31A
330
1F
100
AcDbEntity
  8
0
  6
Continuous
 62
     7
370
    25
100
AcDbLine
 10
224.2999999404
 20
272.7400003767
 30
0.0
 11
252.3000000596
 21
272.7400003767
 31
0.0
  0
LINE
  5
31B
330
1F
100
AcDbEntity
  8
0
  6
Continuous
 62
     7
370
    25
100
AcDbLine
 10
250.2999997318
 20
178.1049995518
 30
0.0
 11
250.2999997318
 21
182.2450010872
 31
0.0
  0
LINE
  5
31C
330
1F
100
AcDbEntity
  8
0
  6
Continuous
 62
     7
370
    25
100
AcDbLine
 10
249.1549997211
 20
178.1049995518
 30
0.0
 11
250.2999997318
 21
178.1049995518
 31
0.0
  0
LINE
  5
31D
330
1F
100
AcDbEntity
  8
0
  6
Continuous
 62
     7
370
    25
100
AcDbLine
 10
248.4549997926
 20
177.4049996233
 30
0.0
 11
249.1549997211
 21
178.1049995518
 31
0.0
  0
LINE
  5
31E
330
1F
100
AcDbEntity
  8
0
  6
Continuous
 62
     7
370
    25
100
AcDbLine
 10
248.4549997926
 20
177.4049996233
 30
0.0
 11
232.7800000638
 21
177.4049996233
 31
0.0
  0
LINE
  5
31F
330
1F
100
AcDbEntity
  8
0
  6
Continuous
 62
     7
370
    25
100
AcDbLine
 10
232.7800000638
 20
177.695000062
 30
0.0
 11
232.7800000638
 21
177.4049996233
 31
0.0
  0
LINE
  5
320
330
1F
100
AcDbEntity
  8
0
  6
Continuous
 62
     7
370
    25
100
AcDbLine
 10
227.7799999893
 20
182.2450010872
 30
0.0
 11
250.2999997318
 21
182.2450010872
 31
0.0
  0
LINE
  5
321
330
1F
100
AcDbEntity
  8
0
  6
Continuous
 62
     7
370
    25
100
AcDbLine
 10
242.2000000805
 20
180.0949989653
 30
0.0
 11
245.800000298
 21
180.0949989653
 31
0.0
  0
ARC
  5
322
330
1F
100
AcDbEntity
  8
0
  6
Continuous
 62
     7
370
    25
100
AcDbCircle
 10
242.2
 20
179.895
 30
0.0
 40
0.2000000000000171
100
AcDbArc
 50
90.0
 51
270.0
  0
LINE
  5
323
330
1F
100
AcDbEntity
  8
0
  6
Continuous
 62
     7
370
    25
100
AcDbLine
 10
245.800000298
 20
179.6950011349
 30
0.0
 11
242.2000000805
 21
179.6950011349
 31
0.0
  0
ARC
  5
324
330
1F
100
AcDbEntity
  8
0
  6
Continuous
 62
     7
370
    25
100
AcDbCircle
 10
245.8
 20
179.895
 30
0.0
 40
0.2000000000000171
100
AcDbArc
 50
270.0
 51
90.0
  0
LINE
  5
325
330
1F
100
AcDbEntity
  8
0
  6
Continuous
 62
     7
370
    25
100
AcDbLine
 10
236.699999924
 20
180.0949989653
 30
0.0
 11
240.2999999553
 21
180.0949989653
 31
0.0
  0
ARC
  5
326
330
1F
100
AcDbEntity
  8
0
  6
Continuous
 62
     7
370
    25
100
AcDbCircle
 10
236.7
 20
179.895
 30
0.0
 40
0.2000000000000171
100
AcDbArc
 50
90.0
 51
270.0
  0
LINE
  5
327
330
1F
100
AcDbEntity
  8
0
  6
Continuous
 62
     7
370
    25
100
AcDbLine
 10
240.2999999553
 20
179.6950011349
 30
0.0
 11
236.699999924
 21
179.6950011349
 31
0.0
  0
ARC
  5
328
330
1F
100
AcDbEntity
  8
0
  6
Continuous
 62
     7
370
    25
100
AcDbCircle
 10
240.3
 20
179.895
 30
0.0
 40
0.2000000000000171
100
AcDbArc
 50
270.0
 51
90.0
  0
LINE
  5
329
330
1F
100
AcDbEntity
  8
0
  6
Continuous
 62
     7
370
    25
100
AcDbLine
 10
231.1999997675
 20
180.0949989653
 30
0.0
 11
234.7999999851
 21
180.0949989653
 31
0.0
  0
ARC
  5
32A
330
1F
100
AcDbEntity
  8
0
  6
Continuous
 62
     7
370
    25
100
AcDbCircle
 10
231.2
 20
179.895
 30
0.0
 40
0.2000000000000171
100
AcDbArc
 50
90.0
 51
270.0
  0
LINE
  5
32B
330
1F
100
AcDbEntity
  8
0
  6
Continuous
 62
     7
370
    25
100
AcDbLine
 10
234.7999999851
 20
179.6950011349
 30
0.0
 11
231.1999997675
 21
179.6950011349
 31
0.0
  0
ARC
  5
32C
330
1F
100
AcDbEntity
  8
0
  6
Continuous
 62
     7
370
    25
100
AcDbCircle
 10
234.8
 20
179.895
 30
0.0
 40
0.2000000000000171
100
AcDbArc
 50
270.0
 51
90.0
  0
LINE
  5
32D
330
1F
100
AcDbEntity
  8
0
  6
Continuous
 62
     7
370
    25
100
AcDbLine
 10
244.9500000656
 20
181.0950009918
 30
0.0
 11
248.5499999106
 21
181.0950009918
 31
0.0
  0
ARC
  5
32E
330
1F
100
AcDbEntity
  8
0
  6
Continuous
 62
     7
370
    25
100
AcDbCircle
 10
244.95
 20
180.895
 30
0.0
 40
0.2000000000000171
100
AcDbArc
 50
90.0
 51
270.0
  0
LINE
  5
32F
330
1F
100
AcDbEntity
  8
0
  6
Continuous
 62
     7
370
    25
100
AcDbLine
 10
248.5499999106
 20
180.6950001812
 30
0.0
 11
244.9500000656
 21
180.6950001812
 31
0.0
  0
ARC
  5
330
330
1F
100
AcDbEntity
  8
0
  6
Continuous
 62
     7
370
    25
100
AcDbCircle
 10
248.55
 20
180.895
 30
0.0
 40
0.2000000000000171
100
AcDbArc
 50
270.0
 51
90.0
  0
LINE
  5
331
330
1F
100
AcDbEntity
  8
0
  6
Continuous
 62
     7
370
    25
100
AcDbLine
 10
239.4500000022
 20
181.0950009918
 30
0.0
 11
243.0499999404
 21
181.0950009918
 31
0.0
  0
ARC
  5
332
330
1F
100
AcDbEntity
  8
0
  6
Continuous
 62
     7
370
    25
100
AcDbCircle
 10
239.45
 20
180.895
 30
0.0
 40
0.2000000000000171
100
AcDbArc
 50
90.0
 51
270.0
  0
LINE
  5
333
330
1F
100
AcDbEntity
  8
0
  6
Continuous
 62
     7
370
    25
100
AcDbLine
 10
243.0499999404
 20
180.6950001812
 30
0.0
 11
239.4500000022
 21
180.6950001812
 31
0.0
  0
ARC
  5
334
330
1F
100
AcDbEntity
  8
0
  6
Continuous
 62
     7
370
    25
100
AcDbCircle
 10
243.05
 20
180.895
 30
0.0
 40
0.2000000000000171
100
AcDbArc
 50
270.0
 51
90.0
  0
LINE
  5
335
330
1F
100
AcDbEntity
  8
0
  6
Continuous
 62
     7
370
    25
100
AcDbLine
 10
233.9500001252
 20
181.0950009918
 30
0.0
 11
237.5500000168
 21
181.0950009918
 31
0.0
  0
ARC
  5
336
330
1F
100
AcDbEntity
  8
0
  6
Continuous
 62
     7
370
    25
100
AcDbCircle
 10
233.95
 20
180.895
 30
0.0
 40
0.2000000000000171
100
AcDbArc
 50
90.0
 51
270.0
  0
LINE
  5
337
330
1F
100
AcDbEntity
  8
0
  6
Continuous
 62
     7
370
    25
100
AcDbLine
 10
237.5500000168
 20
180.6950001812
 30
0.0
 11
233.9500001252
 21
180.6950001812
 31
0.0
  0
ARC
  5
338
330
1F
100
AcDbEntity
  8
0
  6
Continuous
 62
     7
370
    25
100
AcDbCircle
 10
237.55
 20
180.895
 30
0.0
 40
0.2000000000000171
100
AcDbArc
 50
270.0
 51
90.0
  0
LINE
  5
339
330
1F
100
AcDbEntity
  8
0
  6
Continuous
 62
     7
370
    25
100
AcDbLine
 10
227.7799999893
 20
177.695000062
 30
0.0
 11
232.7800000638
 21
177.695000062
 31
0.0
  0
LINE
  5
33A
330
1F
100
AcDbEntity
  8
0
  6
Continuous
 62
     7
370
    25
100
AcDbLine
 10
227.7799999893
 20
182.2450010872
 30
0.0
 11
227.7799999893
 21
177.695000062
 31
0.0
  0
LINE
  5
33B
330
1F
100
AcDbEntity
  8
0
  6
Continuous
 62
     7
370
    25
100
AcDbLine
 10
250.2999997318
 20
182.2549997663
 30
0.0
 11
250.2999997318
 21
182.2450010872
 31
0.0
  0
LINE
  5
33C
330
1F
100
AcDbEntity
  8
0
  6
Continuous
 62
     7
370
    25
100
AcDbLine
 10
227.7799999893
 20
182.2549997663
 30
0.0
 11
227.7799999893
 21
182.2450010872
 31
0.0
  0
LINE
  5
33D
330
1F
100
AcDbEntity
  8
0
  6
Continuous
 62
     7
370
    25
100
AcDbLine
 10
248.5784998715
 20
176.4899997807
 30
0.0
 11
250.3114997029
 21
176.4899997807
 31
0.0
  0
LINE
  5
33E
330
1F
100
AcDbEntity
  8
0
  6
Continuous
 62
     7
370
    25
100
AcDbLine
 10
248.8610854924
 20
177.0265011883
 30
0.0
 11
250.0289148271
 21
177.0265011883
 31
0.0
  0
ARC
  5
33F
330
1F
100
AcDbEntity
  8
0
  6
Continuous
 62
     7
370
    25
100
AcDbCircle
 10
231.325
 20
177.74
 30
0.0
 40
1.250000000000026
100
AcDbArc
 50
182.0630938545
 51
357.9369061455
  0
ARC
  5
340
330
1F
100
AcDbEntity
  8
0
  6
Continuous
 62
     7
370
    25
100
AcDbCircle
 10
231.325
 20
177.74
 30
0.0
 40
0.8503812145668254
100
AcDbArc
 50
183.0333630072
 51
356.9666369928
  0
ARC
  5
341
330
1F
100
AcDbEntity
  8
0
  6
Continuous
 62
     7
370
    25
100
AcDbCircle
 10
231.325
 20
177.74
 30
0.0
 40
0.375000000000021
100
AcDbArc
 50
186.8921025794
 51
353.1078974206
  0
LINE
  5
342
330
1F
100
AcDbEntity
  8
0
  6
Continuous
 62
     7
370
    25
100
AcDbLine
 10
249.0293076813
 20
177.1874992943
 30
0.0
 11
249.8606918931
 21
177.1874992943
 31
0.0
  0
LINE
  5
343
330
1F
100
AcDbEntity
  8
0
  6
Continuous
 62
     7
370
    25
100
AcDbLine
 10
252.3249997377
 20
182.5049995279
 30
0.0
 11
252.3249997377
 21
272.4900006151
 31
0.0
  0
LINE
  5
344
330
1F
100
AcDbEntity
  8
0
  6
Continuous
 62
     7
370
    25
100
AcDbLine
 10
253.314795959
 20
182.5049995279
 30
0.0
 11
253.314795959
 21
272.4900006151
 31
0.0
  0
LINE
  5
345
330
1F
100
AcDbEntity
  8
0
  6
Continuous
 62
     7
370
    25
100
AcDbLine
 10
253.314795959
 20
272.4900006151
 30
0.0
 11
252.3249997377
 21
272.4900006151
 31
0.0
  0
LINE
  5
346
330
1F
100
AcDbEntity
  8
0
  6
Continuous
 62
     7
370
    25
100
AcDbLine
 10
253.314795959
 20
182.5049995279
 30
0.0
 11
252.3249997377
 21
182.5049995279
 31
0.0
  0
LINE
  5
347
330
1F
100
AcDbEntity
  8
0
  6
Continuous
 62
     7
370
    25
100
AcDbLine
 10
253.3247961283
 20
182.5049995279
 30
0.0
 11
253.3247961283
 21
272.4900006151
 31
0.0
  0
LINE
  5
348
330
1F
100
AcDbEntity
  8
0
  6
Continuous
 62
     7
370
    25
100
AcDbLine
 10
253.3247961283
 20
272.4900006151
 30
0.0
 11
253.314795959
 21
272.4900006151
 31
0.0
  0
LINE
  5
349
330
1F
100
AcDbEntity
  8
0
  6
Continuous
 62
     7
370
    25
100
AcDbLine
 10
253.3247961283
 20
182.5049995279
 30
0.0
 11
253.314795959
 21
182.5049995279
 31
0.0
  0
LINE
  5
34A
330
1F
100
AcDbEntity
  8
0
  6
Continuous
 62
     7
370
    25
100
AcDbLine
 10
253.3313124061
 20
182.5049995279
 30
0.0
 11
253.3313124061
 21
272.4900006151
 31
0.0
  0
LINE
  5
34B
330
1F
100
AcDbEntity
  8
0
  6
Continuous
 62
     7
370
    25
100
AcDbLine
 10
253.3313124061
 20
272.4900006151
 30
0.0
 11
253.3247961283
 21
272.4900006151
 31
0.0
  0
LINE
  5
34C
330
1F
100
AcDbEntity
  8
0
  6
Continuous
 62
     7
370
    25
100
AcDbLine
 10
253.3313124061
 20
182.5049995279
 30
0.0
 11
253.3247961283
 21
182.5049995279
 31
0.0
  0
LINE
  5
34D
330
1F
100
AcDbEntity
  8
0
  6
Continuous
 62
     7
370
    25
100
AcDbLine
 10
253.3413125753
 20
272.4900006151
 30
0.0
 11
253.3313124061
 21
272.4900006151
 31
0.0
  0
LINE
  5
34E
330
1F
100
AcDbEntity
  8
0
  6
Continuous
 62
     7
370
    25
100
AcDbLine
 10
253.3413125753
 20
182.5049995279
 30
0.0
 11
253.3313124061
 21
182.5049995279
 31
0.0
  0
LINE
  5
34F
330
1F
100
AcDbEntity
  8
0
  6
Continuous
 62
     7
370
    25
100
AcDbLine
 10
252.2750003815
 20
182.5049995279
 30
0.0
 11
252.2750003815
 21
272.4900006151
 31
0.0
  0
LINE
  5
350
330
1F
100
AcDbEntity
  8
0
  6
Continuous
 62
     7
370
    25
100
AcDbLine
 10
252.3249997377
 20
272.4900006151
 30
0.0
 11
252.2750003815
 21
272.4900006151
 31
0.0
  0
LINE
  5
351
330
1F
100
AcDbEntity
  8
0
  6
Continuous
 62
     7
370
    25
100
AcDbLine
 10
252.3249997377
 20
182.5049995279
 30
0.0
 11
252.2750003815
 21
182.5049995279
 31
0.0
  0
LINE
  5
352
330
1F
100
AcDbEntity
  8
0
  6
Continuous
 62
     7
370
    25
100
AcDbLine
 10
250.8
 20
182.5049995279
 30
0.0
 11
250.8
 21
272.4900006151
 31
0.0
  0
LINE
  5
353
330
1F
100
AcDbEntity
  8
0
  6
Continuous
 62
     7
370
    25
100
AcDbLine
 10
252.2750003815
 20
272.4900006151
 30
0.0
 11
250.8
 21
272.4900006151
 31
0.0
  0
LINE
  5
354
330
1F
100
AcDbEntity
  8
0
  6
Continuous
 62
     7
370
    25
100
AcDbLine
 10
252.2750003815
 20
182.5049995279
 30
0.0
 11
250.8
 21
182.5049995279
 31
0.0
  0
LINE
  5
355
330
1F
100
AcDbEntity
  8
0
  6
Continuous
 62
     8
370
    25
100
AcDbLine
 10
248.503500092
 20
176.5650003052
 30
0.0
 11
250.3865002275
 21
176.5650003052
 31
0.0
  0
LINE
  5
356
330
1F
100
AcDbEntity
  8
0
  6
Continuous
 62
     8
370
    25
100
AcDbLine
 10
248.503500092
 20
176.6596405602
 30
0.0
 11
250.3865002275
 21
176.6596405602
 31
0.0
  0
LINE
  5
357
330
1F
100
AcDbEntity
  8
0
  6
Continuous
 62
     8
370
    25
100
AcDbLine
 10
248.5246180177
 20
176.7118095255
 30
0.0
 11
250.3653823018
 21
176.7118095255
 31
0.0
  0
LINE
  5
358
330
1F
100
AcDbEntity
  8
0
  6
Continuous
 62
     8
370
    25
100
AcDbLine
 10
248.8072036386
 20
177.0036696291
 30
0.0
 11
250.0827966809
 21
177.0036696291
 31
0.0
  0
ENDSEC
  0
SECTION
  2
OBJECTS
  0
DICTIONARY
  5
C
330
0
100
AcDbDictionary
281
     1
  3
ACAD_GROUP
350
D
  3
ACAD_LAYOUT
350
1A
  3
ACAD_MLINESTYLE
350
17
  3
ACAD_PLOTSETTINGS
350
19
  3
ACAD_PLOTSTYLENAME
350
E
  3
ACAD_SCALELIST
350
47
  0
DICTIONARY
  5
D
102
{ACAD_REACTORS
330
C
102
}
330
C
100
AcDbDictionary
281
     1
  0
DICTIONARY
  5
1A
102
{ACAD_REACTORS
330
C
102
}
330
C
100
AcDbDictionary
281
     1
  3
Layout1
350
1E
  3
Layout2
350
26
  3
Model
350
22
  0
DICTIONARY
  5
17
102
{ACAD_REACTORS
330
C
102
}
330
C
100
AcDbDictionary
281
     1
  3
Standard
350
18
  0
DICTIONARY
  5
19
102
{ACAD_REACTORS
330
C
102
}
330
C
100
AcDbDictionary
281
     1
  0
ACDBDICTIONARYWDFLT
  5
E
102
{ACAD_REACTORS
330
C
102
}
330
C
100
AcDbDictionary
281
     1
  3
Normal
350
F
100
AcDbDictionaryWithDefault
340
F
  0
DICTIONARY
  5
47
102
{ACAD_REACTORS
330
C
102
}
330
C
100
AcDbDictionary
281
     1
  3
A0
350
48
  3
A1
350
49
  3
A2
350
4A
  3
A3
350
4B
  3
A4
350
4C
  3
A5
350
4D
  3
A6
350
4E
  3
A7
350
4F
  3
A8
350
50
  3
A9
350
51
  3
B0
350
52
  3
B1
350
53
  3
B2
350
54
  3
B3
350
55
  3
B4
350
56
  3
B5
350
57
  3
B6
350
58
  3
B7
350
59
  3
B8
350
5A
  3
B9
350
5B
  3
C0
350
5C
  3
C1
350
5D
  3
C2
350
5E
  3
C3
350
5F
  3
C4
350
60
  3
C5
350
61
  3
C6
350
62
  3
C7
350
63
  3
C8
350
64
  3
C9
350
65
  3
D0
350
66
  3
D1
350
67
  3
D2
350
68
  0
LAYOUT
  5
1E
102
{ACAD_REACTORS
330
1A
102
}
330
1A
100
AcDbPlotSettings
  1

  2
none_device
  4

  6

 40
0.0
 41
0.0
 42
0.0
 43
0.0
 44
0.0
 45
0.0
 46
0.0
 47
0.0
 48
0.0
 49
0.0
140
0.0
141
0.0
142
1.0
143
1.0
 70
   688
 72
     1
 73
     0
 74
     5
  7

 75
    16
147
1.0
148
0.0
149
0.0
100
AcDbLayout
  1
Layout1
 70
     1
 71
     1
 10
0.0
 20
0.0
 11
420.0
 21
297.0
 12
0.0
 22
0.0
 32
0.0
 14
1.0000000000E+20
 24
1.0000000000E+20
 34
1.0000000000E+20
 15
-1.0000000000E+20
 25
-1.0000000000E+20
 35
-1.0000000000E+20
146
0.0
 13
0.0
 23
0.0
 33
0.0
 16
1.0
 26
0.0
 36
0.0
 17
0.0
 27
1.0
 37
0.0
 76
     0
330
1B
  0
LAYOUT
  5
26
102
{ACAD_REACTORS
330
1A
102
}
330
1A
100
AcDbPlotSettings
  1

  2
none_device
  4

  6

 40
0.0
 41
0.0
 42
0.0
 43
0.0
 44
0.0
 45
0.0
 46
0.0
 47
0.0
 48
0.0
 49
0.0
140
0.0
141
0.0
142
1.0
143
1.0
 70
   688
 72
     1
 73
     0
 74
     5
  7

 75
    16
147
1.0
148
0.0
149
0.0
100
AcDbLayout
  1
Layout2
 70
     1
 71
     2
 10
0.0
 20
0.0
 11
0.0
 21
0.0
 12
0.0
 22
0.0
 32
0.0
 14
0.0
 24
0.0
 34
0.0
 15
0.0
 25
0.0
 35
0.0
146
0.0
 13
0.0
 23
0.0
 33
0.0
 16
1.0
 26
0.0
 36
0.0
 17
0.0
 27
1.0
 37
0.0
 76
     0
330
23
  0
LAYOUT
  5
22
102
{ACAD_REACTORS
330
1A
102
}
330
1A
100
AcDbPlotSettings
  1

  2
none_device
  4
Letter_(8.50_x_11.00_Inches)
  6

 40
6.35
 41
6.35
 42
6.35000508
 43
6.35000508
 44
215.9
 45
279.4
 46
0.0
 47
0.0
 48
0.0
 49
0.0
140
0.0
141
0.0
142
1.0
143
1.0
 70
  1712
 72
     1
 73
     0
 74
     0
  7

 75
     0
147
1.0
148
0.0
149
0.0
100
AcDbLayout
  1
Model
 70
     1
 71
     0
 10
0.0
 20
0.0
 11
420.0
 21
297.0
 12
0.0
 22
0.0
 32
0.0
 14
0.0
 24
0.0
 34
0.0
 15
420.0
 25
297.0
 35
0.0
146
0.0
 13
0.0
 23
0.0
 33
0.0
 16
1.0
 26
0.0
 36
0.0
 17
0.0
 27
1.0
 37
0.0
 76
     0
330
1F
331
29
  0
MLINESTYLE
  5
18
102
{ACAD_REACTORS
330
17
102
}
330
17
100
AcDbMlineStyle
  2
Standard
 70
     0
  3

 62
   256
 51
90.0
 52
90.0
 71
     2
 49
0.5
 62
   256
  6
BYLAYER
 49
-0.5
 62
   256
  6
BYLAYER
  0
ACDBPLACEHOLDER
  5
F
102
{ACAD_REACTORS
330
E
102
}
330
E
  0
SCALE
  5
48
102
{ACAD_REACTORS
330
47
102
}
330
47
100
AcDbScale
 70
     0
300
1:1
140
1.0
141
1.0
290
     1
  0
SCALE
  5
49
102
{ACAD_REACTORS
330
47
102
}
330
47
100
AcDbScale
 70
     0
300
1:2
140
1.0
141
2.0
290
     0
  0
SCALE
  5
4A
102
{ACAD_REACTORS
330
47
102
}
330
47
100
AcDbScale
 70
     0
300
1:4
140
1.0
141
4.0
290
     0
  0
SCALE
  5
4B
102
{ACAD_REACTORS
330
47
102
}
330
47
100
AcDbScale
 70
     0
300
1:5
140
1.0
141
5.0
290
     0
  0
SCALE
  5
4C
102
{ACAD_REACTORS
330
47
102
}
330
47
100
AcDbScale
 70
     0
300
1:8
140
1.0
141
8.0
290
     0
  0
SCALE
  5
4D
102
{ACAD_REACTORS
330
47
102
}
330
47
100
AcDbScale
 70
     0
300
1:10
140
1.0
141
10.0
290
     0
  0
SCALE
  5
4E
102
{ACAD_REACTORS
330
47
102
}
330
47
100
AcDbScale
 70
     0
300
1:16
140
1.0
141
16.0
290
     0
  0
SCALE
  5
4F
102
{ACAD_REACTORS
330
47
102
}
330
47
100
AcDbScale
 70
     0
300
1:20
140
1.0
141
20.0
290
     0
  0
SCALE
  5
50
102
{ACAD_REACTORS
330
47
102
}
330
47
100
AcDbScale
 70
     0
300
1:30
140
1.0
141
30.0
290
     0
  0
SCALE
  5
51
102
{ACAD_REACTORS
330
47
102
}
330
47
100
AcDbScale
 70
     0
300
1:40
140
1.0
141
40.0
290
     0
  0
SCALE
  5
52
102
{ACAD_REACTORS
330
47
102
}
330
47
100
AcDbScale
 70
     0
300
1:50
140
1.0
141
50.0
290
     0
  0
SCALE
  5
53
102
{ACAD_REACTORS
330
47
102
}
330
47
100
AcDbScale
 70
     0
300
1:100
140
1.0
141
100.0
290
     0
  0
SCALE
  5
54
102
{ACAD_REACTORS
330
47
102
}
330
47
100
AcDbScale
 70
     0
300
2:1
140
2.0
141
1.0
290
     0
  0
SCALE
  5
55
102
{ACAD_REACTORS
330
47
102
}
330
47
100
AcDbScale
 70
     0
300
4:1
140
4.0
141
1.0
290
     0
  0
SCALE
  5
56
102
{ACAD_REACTORS
330
47
102
}
330
47
100
AcDbScale
 70
     0
300
8:1
140
8.0
141
1.0
290
     0
  0
SCALE
  5
57
102
{ACAD_REACTORS
330
47
102
}
330
47
100
AcDbScale
 70
     0
300
10:1
140
10.0
141
1.0
290
     0
  0
SCALE
  5
58
102
{ACAD_REACTORS
330
47
102
}
330
47
100
AcDbScale
 70
     0
300
100:1
140
100.0
141
1.0
290
     0
  0
SCALE
  5
59
102
{ACAD_REACTORS
330
47
102
}
330
47
100
AcDbScale
 70
     0
300
1/128" = 1'-0"
140
0.0078125
141
12.0
290
     0
  0
SCALE
  5
5A
102
{ACAD_REACTORS
330
47
102
}
330
47
100
AcDbScale
 70
     0
300
1/64" = 1'-0"
140
0.015625
141
12.0
290
     0
  0
SCALE
  5
5B
102
{ACAD_REACTORS
330
47
102
}
330
47
100
AcDbScale
 70
     0
300
1/32" = 1'-0"
140
0.03125
141
12.0
290
     0
  0
SCALE
  5
5C
102
{ACAD_REACTORS
330
47
102
}
330
47
100
AcDbScale
 70
     0
300
1/16" = 1'-0"
140
0.0625
141
12.0
290
     0
  0
SCALE
  5
5D
102
{ACAD_REACTORS
330
47
102
}
330
47
100
AcDbScale
 70
     0
300
3/32" = 1'-0"
140
0.09375
141
12.0
290
     0
  0
SCALE
  5
5E
102
{ACAD_REACTORS
330
47
102
}
330
47
100
AcDbScale
 70
     0
300
1/8" = 1'-0"
140
0.125
141
12.0
290
     0
  0
SCALE
  5
5F
102
{ACAD_REACTORS
330
47
102
}
330
47
100
AcDbScale
 70
     0
300
3/16" = 1'-0"
140
0.1875
141
12.0
290
     0
  0
SCALE
  5
60
102
{ACAD_REACTORS
330
47
102
}
330
47
100
AcDbScale
 70
     0
300
1/4" = 1'-0"
140
0.25
141
12.0
290
     0
  0
SCALE
  5
61
102
{ACAD_REACTORS
330
47
102
}
330
47
100
AcDbScale
 70
     0
300
3/8" = 1'-0"
140
0.375
141
12.0
290
     0
  0
SCALE
  5
62
102
{ACAD_REACTORS
330
47
102
}
330
47
100
AcDbScale
 70
     0
300
1/2" = 1'-0"
140
0.5
141
12.0
290
     0
  0
SCALE
  5
63
102
{ACAD_REACTORS
330
47
102
}
330
47
100
AcDbScale
 70
     0
300
3/4" = 1'-0"
140
0.75
141
12.0
290
     0
  0
SCALE
  5
64
102
{ACAD_REACTORS
330
47
102
}
330
47
100
AcDbScale
 70
     0
300
1" = 1'-0"
140
1.0
141
12.0
290
     0
  0
SCALE
  5
65
102
{ACAD_REACTORS
330
47
102
}
330
47
100
AcDbScale
 70
     0
300
1-1/2" = 1'-0"
140
1.5
141
12.0
290
     0
  0
SCALE
  5
66
102
{ACAD_REACTORS
330
47
102
}
330
47
100
AcDbScale
 70
     0
300
3" = 1'-0"
140
3.0
141
12.0
290
     0
  0
SCALE
  5
67
102
{ACAD_REACTORS
330
47
102
}
330
47
100
AcDbScale
 70
     0
300
6" = 1'-0"
140
6.0
141
12.0
290
     0
  0
SCALE
  5
68
102
{ACAD_REACTORS
330
47
102
}
330
47
100
AcDbScale
 70
     0
300
1'-0" = 1'-0"
140
12.0
141
12.0
290
     0
  0
ENDSEC
  0
EOF
