  0
SECTION
  2
HEADER
  9
$ACADVER
  1
AC1015
  9
$ACADMAINTVER
 70
     6
  9
$DWGCODEPAGE
  3
ANSI_1252
  9
$INSBASE
 10
0.0
 20
0.0
 30
0.0
  9
$EXTMIN
 10
0.0
 20
0.0
 30
0.0
  9
$EXTMAX
 10
420.0
 20
297.0
 30
0.0
  9
$LIMMIN
 10
0.0
 20
0.0
  9
$LIMMAX
 10
420.0
 20
297.0
  9
$ORTHOMODE
 70
     0
  9
$REGENMODE
 70
     1
  9
$FILLMODE
 70
     1
  9
$QTEXTMODE
 70
     0
  9
$MIRRTEXT
 70
     1
  9
$LTSCALE
 40
1.0
  9
$ATTMODE
 70
     1
  9
$TEXTSIZE
 40
3.5
  9
$TRACEWID
 40
1.0
  9
$TEXTSTYLE
  7
Standard
  9
$CLAYER
  8
0
  9
$CELTYPE
  6
ByLayer
  9
$CECOLOR
 62
   256
  9
$CELTSCALE
 40
1.0
  9
$DISPSILH
 70
     0
  9
$DIMSCALE
 40
1.0
  9
$DIMASZ
 40
3.0
  9
$DIMEXO
 40
1.0
  9
$DIMDLI
 40
3.75
  9
$DIMRND
 40
0.0
  9
$DIMDLE
 40
0.0
  9
$DIMEXE
 40
1.0
  9
$DIMTP
 40
0.0
  9
$DIMTM
 40
0.0
  9
$DIMTXT
 40
3.5
  9
$DIMCEN
 40
2.5
  9
$DIMTSZ
 40
0.0
  9
$DIMTOL
 70
     0
  9
$DIMLIM
 70
     0
  9
$DIMTIH
 70
     1
  9
$DIMTOH
 70
     1
  9
$DIMSE1
 70
     0
  9
$DIMSE2
 70
     0
  9
$DIMTAD
 70
     1
  9
$DIMZIN
 70
     0
  9
$DIMBLK
  1

  9
$DIMASO
 70
     1
  9
$DIMSHO
 70
     1
  9
$DIMPOST
  1

  9
$DIMAPOST
  1

  9
$DIMALT
 70
     0
  9
$DIMALTD
 70
     3
  9
$DIMALTF
 40
0.0393700787
  9
$DIMLFAC
 40
20.0
  9
$DIMTOFL
 70
     1
  9
$DIMTVP
 40
0.0
  9
$DIMTIX
 70
     0
  9
$DIMSOXD
 70
     0
  9
$DIMSAH
 70
     0
  9
$DIMBLK1
  1

  9
$DIMBLK2
  1

  9
$DIMSTYLE
  2
ISO-25
  9
$DIMCLRD
 70
     0
  9
$DIMCLRE
 70
     0
  9
$DIMCLRT
 70
     0
  9
$DIMTFAC
 40
1.0
  9
$DIMGAP
 40
1.524
  9
$DIMJUST
 70
     0
  9
$DIMSD1
 70
     0
  9
$DIMSD2
 70
     0
  9
$DIMTOLJ
 70
     0
  9
$DIMTZIN
 70
     0
  9
$DIMALTZ
 70
     0
  9
$DIMALTTZ
 70
     0
  9
$DIMUPT
 70
     0
  9
$DIMDEC
 70
     1
  9
$DIMTDEC
 70
     1
  9
$DIMALTU
 70
     2
  9
$DIMALTTD
 70
     3
  9
$DIMTXSTY
  7
Standard
  9
$DIMAUNIT
 70
     0
  9
$DIMADEC
 70
     1
  9
$DIMALTRND
 40
0.0
  9
$DIMAZIN
 70
     0
  9
$DIMDSEP
 70
    44
  9
$DIMATFIT
 70
     3
  9
$DIMFRAC
 70
     0
  9
$DIMLDRBLK
  1

  9
$DIMLUNIT
 70
     2
  9
$DIMLWD
 70
    -2
  9
$DIMLWE
 70
    -2
  9
$DIMTMOVE
 70
     0
  9
$LUNITS
 70
     2
  9
$LUPREC
 70
     1
  9
$SKETCHINC
 40
1.0
  9
$FILLETRAD
 40
10.0
  9
$AUNITS
 70
     0
  9
$AUPREC
 70
     1
  9
$MENU
  1
.
  9
$ELEVATION
 40
0.0
  9
$PELEVATION
 40
0.0
  9
$THICKNESS
 40
0.0
  9
$LIMCHECK
 70
     0
  9
$CHAMFERA
 40
0.0
  9
$CHAMFERB
 40
0.0
  9
$CHAMFERC
 40
0.0
  9
$CHAMFERD
 40
0.0
  9
$SKPOLY
 70
     0
  9
$TDCREATE
 40
2459516.351867396
  9
$TDUCREATE
 40
2459516.268534062
  9
$TDUPDATE
 40
2459516.351867743
  9
$TDUUPDATE
 40
2459516.26853441
  9
$TDINDWG
 40
0.0000000116
  9
$TDUSRTIMER
 40
0.0000000116
  9
$USRTIMER
 70
     1
  9
$ANGBASE
 50
0.0
  9
$ANGDIR
 70
     0
  9
$PDMODE
 70
     0
  9
$PDSIZE
 40
-1.0
  9
$PLINEWID
 40
0.0
  9
$SPLFRAME
 70
     0
  9
$SPLINETYPE
 70
     6
  9
$SPLINESEGS
 70
     8
  9
$HANDSEED
  5
355
  9
$SURFTAB1
 70
     6
  9
$SURFTAB2
 70
     6
  9
$SURFTYPE
 70
     6
  9
$SURFU
 70
     6
  9
$SURFV
 70
     6
  9
$UCSBASE
  2

  9
$UCSNAME
  2

  9
$UCSORG
 10
0.0
 20
0.0
 30
0.0
  9
$UCSXDIR
 10
1.0
 20
0.0
 30
0.0
  9
$UCSYDIR
 10
0.0
 20
1.0
 30
0.0
  9
$UCSORTHOREF
  2

  9
$UCSORTHOVIEW
 70
     0
  9
$UCSORGTOP
 10
0.0
 20
0.0
 30
0.0
  9
$UCSORGBOTTOM
 10
0.0
 20
0.0
 30
0.0
  9
$UCSORGLEFT
 10
0.0
 20
0.0
 30
0.0
  9
$UCSORGRIGHT
 10
0.0
 20
0.0
 30
0.0
  9
$UCSORGFRONT
 10
0.0
 20
0.0
 30
0.0
  9
$UCSORGBACK
 10
0.0
 20
0.0
 30
0.0
  9
$PUCSBASE
  2

  9
$PUCSNAME
  2

  9
$PUCSORG
 10
0.0
 20
0.0
 30
0.0
  9
$PUCSXDIR
 10
1.0
 20
0.0
 30
0.0
  9
$PUCSYDIR
 10
0.0
 20
1.0
 30
0.0
  9
$PUCSORTHOREF
  2

  9
$PUCSORTHOVIEW
 70
     0
  9
$PUCSORGTOP
 10
0.0
 20
0.0
 30
0.0
  9
$PUCSORGBOTTOM
 10
0.0
 20
0.0
 30
0.0
  9
$PUCSORGLEFT
 10
0.0
 20
0.0
 30
0.0
  9
$PUCSORGRIGHT
 10
0.0
 20
0.0
 30
0.0
  9
$PUCSORGFRONT
 10
0.0
 20
0.0
 30
0.0
  9
$PUCSORGBACK
 10
0.0
 20
0.0
 30
0.0
  9
$USERI1
 70
     0
  9
$USERI2
 70
     0
  9
$USERI3
 70
     0
  9
$USERI4
 70
     0
  9
$USERI5
 70
     0
  9
$USERR1
 40
0.0
  9
$USERR2
 40
0.0
  9
$USERR3
 40
0.0
  9
$USERR4
 40
0.0
  9
$USERR5
 40
0.0
  9
$WORLDVIEW
 70
     1
  9
$SHADEDGE
 70
     3
  9
$SHADEDIF
 70
    70
  9
$TILEMODE
 70
     1
  9
$MAXACTVP
 70
    64
  9
$PINSBASE
 10
0.0
 20
0.0
 30
0.0
  9
$PLIMCHECK
 70
     0
  9
$PEXTMIN
 10
1.0000000000E+20
 20
1.0000000000E+20
 30
1.0000000000E+20
  9
$PEXTMAX
 10
-1.0000000000E+20
 20
-1.0000000000E+20
 30
-1.0000000000E+20
  9
$PLIMMIN
 10
0.0
 20
0.0
  9
$PLIMMAX
 10
420.0
 20
297.0
  9
$UNITMODE
 70
     0
  9
$VISRETAIN
 70
     1
  9
$PLINEGEN
 70
     0
  9
$PSLTSCALE
 70
     1
  9
$TREEDEPTH
 70
  3020
  9
$CMLSTYLE
  2
Standard
  9
$CMLJUST
 70
     0
  9
$CMLSCALE
 40
20.0
  9
$PROXYGRAPHICS
 70
     1
  9
$MEASUREMENT
 70
     1
  9
$CELWEIGHT
370
    -1
  9
$ENDCAPS
280
     0
  9
$JOINSTYLE
280
     0
  9
$LWDISPLAY
290
     1
  9
$INSUNITS
 70
     4
  9
$HYPERLINKBASE
  1

  9
$STYLESHEET
  1

  9
$XEDIT
290
     1
  9
$CEPSNTYPE
380
     0
  9
$PSTYLEMODE
290
     1
  9
$FINGERPRINTGUID
  2
{132B8B73-B592-4D79-814B-8B397FB44E1A}
  9
$VERSIONGUID
  2
{FAEB1C32-E019-11D5-929B-00C0DF256EC4}
  9
$EXTNAMES
290
     1
  9
$PSVPSCALE
 40
0.0
  9
$OLESTARTUP
290
     0
  0
ENDSEC
  0
SECTION
  2
CLASSES
  0
CLASS
  1
ACDBDICTIONARYWDFLT
  2
AcDbDictionaryWithDefault
  3
ObjectDBX Classes
 90
        0
280
     0
281
     0
  0
CLASS
  1
VISUALSTYLE
  2
AcDbVisualStyle
  3
ObjectDBX Classes
 90
     4095
280
     0
281
     0
  0
CLASS
  1
MATERIAL
  2
AcDbMaterial
  3
ObjectDBX Classes
 90
     1153
280
     0
281
     0
  0
CLASS
  1
SCALE
  2
AcDbScale
  3
ObjectDBX Classes
 90
     1153
280
     0
281
     0
  0
CLASS
  1
TABLESTYLE
  2
AcDbTableStyle
  3
ObjectDBX Classes
 90
     4095
280
     0
281
     0
  0
CLASS
  1
MLEADERSTYLE
  2
AcDbMLeaderStyle
  3
ACDB_MLEADERSTYLE_CLASS
 90
     4095
280
     0
281
     0
  0
CLASS
  1
SUN
  2
AcDbSun
  3
SCENEOE
 90
     1153
280
     0
281
     0
  0
CLASS
  1
ACDBPLACEHOLDER
  2
AcDbPlaceHolder
  3
ObjectDBX Classes
 90
        0
280
     0
281
     0
  0
CLASS
  1
LAYOUT
  2
AcDbLayout
  3
ObjectDBX Classes
 90
        0
280
     0
281
     0
  0
ENDSEC
  0
SECTION
  2
TABLES
  0
TABLE
  2
VPORT
  5
8
330
0
100
AcDbSymbolTable
 70
     1
  0
VPORT
  5
29
330
8
100
AcDbSymbolTableRecord
100
AcDbViewportTableRecord
  2
*Active
 70
     0
 10
0.0
 20
0.0
 11
1.0
 21
1.0
 12
210.0
 22
148.5
 13
0.0
 23
0.0
 14
10.0
 24
10.0
 15
10.0
 25
10.0
 16
0.0
 26
0.0
 36
1.0
 17
0.0
 27
0.0
 37
0.0
 40
297.0
 41
1.4141414141
 42
50.0
 43
0.0
 44
0.0
 50
0.0
 51
0.0
 71
     0
 72
  2000
 73
     1
 74
     3
 75
     0
 76
     0
 77
     0
 78
     0
281
     0
 65
     1
110
0.0
120
0.0
130
0.0
111
1.0
121
0.0
131
0.0
112
0.0
122
1.0
132
0.0
 79
     0
146
0.0
  0
ENDTAB
  0
TABLE
  2
LTYPE
  5
5
330
0
100
AcDbSymbolTable
 70
     6
  0
LTYPE
  5
14
330
5
100
AcDbSymbolTableRecord
100
AcDbLinetypeTableRecord
  2
ByBlock
 70
     0
  3

 72
    65
 73
     0
 40
0.0
  0
LTYPE
  5
15
330
5
100
AcDbSymbolTableRecord
100
AcDbLinetypeTableRecord
  2
ByLayer
 70
     0
  3

 72
    65
 73
     0
 40
0.0
  0
LTYPE
  5
16
330
5
100
AcDbSymbolTableRecord
100
AcDbLinetypeTableRecord
  2
Continuous
 70
     0
  3
Solid line
 72
    65
 73
     0
 40
0.0
  0
LTYPE
  5
6E
330
5
100
AcDbSymbolTableRecord
100
AcDbLinetypeTableRecord
  2
HIDDEN
 70
     0
  3
Hidden __ __ __ __ __ __ __ __ __ __ __ __ __ __
 72
    65
 73
     2
 40
1.905
 49
1.27
 74
     0
 49
-0.635
 74
     0
  0
LTYPE
  5
6F
330
5
100
AcDbSymbolTableRecord
100
AcDbLinetypeTableRecord
  2
PHANTOM
 70
     0
  3
Phantom ______  __  __  ______  __  __  ______
 72
    65
 73
     6
 40
12.7
 49
6.35
 74
     0
 49
-1.27
 74
     0
 49
1.27
 74
     0
 49
-1.27
 74
     0
 49
1.27
 74
     0
 49
-1.27
 74
     0
  0
LTYPE
  5
70
330
5
100
AcDbSymbolTableRecord
100
AcDbLinetypeTableRecord
  2
CENTER
 70
     0
  3
Center ____ _ ____ _ ____ _ ____ _ ____ _ ____
 72
    65
 73
     4
 40
10.16
 49
6.35
 74
     0
 49
-1.27
 74
     0
 49
1.27
 74
     0
 49
-1.27
 74
     0
  0
LTYPE
  5
71
330
5
100
AcDbSymbolTableRecord
100
AcDbLinetypeTableRecord
  2
CENTERX2
 70
     0
  3
Center (2x) ________  __  ________  __  _____
 72
    65
 73
     4
 40
20.32
 49
12.7
 74
     0
 49
-2.54
 74
     0
 49
2.54
 74
     0
 49
-2.54
 74
     0
  0
LTYPE
  5
72
330
5
100
AcDbSymbolTableRecord
100
AcDbLinetypeTableRecord
  2
DOT2
 70
     0
  3
Dot (.5x) ........................................
 72
    65
 73
     2
 40
0.635
 49
0.0
 74
     0
 49
-0.635
 74
     0
  0
ENDTAB
  0
TABLE
  2
LAYER
  5
2
330
0
100
AcDbSymbolTable
 70
     6
  0
LAYER
  5
10
330
2
100
AcDbSymbolTableRecord
100
AcDbLayerTableRecord
  2
0
 70
     0
 62
     7
  6
Continuous
370
    -3
390
F
  0
LAYER
  5
73
330
2
100
AcDbSymbolTableRecord
100
AcDbLayerTableRecord
  2
SLD-0
 70
     0
 62
   179
  6
Continuous
370
    -3
390
F
  0
LAYER
  5
74
330
2
100
AcDbSymbolTableRecord
100
AcDbLayerTableRecord
  2
50DISEGNO
 70
     0
 62
     1
  6
Continuous
370
    -3
390
F
  0
LAYER
  5
75
330
2
100
AcDbSymbolTableRecord
100
AcDbLayerTableRecord
  2
SLD-DEFPOINTS
 70
     0
 62
    35
  6
Continuous
370
    -3
390
F
  0
LAYER
  5
76
330
2
100
AcDbSymbolTableRecord
100
AcDbLayerTableRecord
  2
250_CARTIGLIO
 70
     0
 62
   230
  6
Continuous
370
    -3
390
F
  0
LAYER
  5
77
330
2
100
AcDbSymbolTableRecord
100
AcDbLayerTableRecord
  2
80_QUOTE
 70
     0
 62
   179
  6
Continuous
370
    -3
390
F
  0
ENDTAB
  0
TABLE
  2
STYLE
  5
3
330
0
100
AcDbSymbolTable
 70
     1
  0
STYLE
  5
11
330
3
100
AcDbSymbolTableRecord
100
AcDbTextStyleTableRecord
  2
Standard
 70
     0
 40
0.0
 41
1.0
 50
0.0
 71
     0
 42
3.5
  3
txt
  4

  0
ENDTAB
  0
TABLE
  2
VIEW
  5
6
330
0
100
AcDbSymbolTable
 70
     0
  0
ENDTAB
  0
TABLE
  2
UCS
  5
7
330
0
100
AcDbSymbolTable
 70
     0
  0
ENDTAB
  0
TABLE
  2
APPID
  5
9
330
0
100
AcDbSymbolTable
 70
     1
  0
APPID
  5
12
330
9
100
AcDbSymbolTableRecord
100
AcDbRegAppTableRecord
  2
ACAD
 70
     0
  0
ENDTAB
  0
TABLE
  2
DIMSTYLE
  5
A
330
0
100
AcDbSymbolTable
 70
     1
100
AcDbDimStyleTable
  0
DIMSTYLE
105
27
330
A
100
AcDbSymbolTableRecord
100
AcDbDimStyleTableRecord
  2
ISO-25
 70
     0
 41
2.5
 42
0.625
 43
3.75
 44
1.25
 73
     0
 74
     0
 77
     1
 78
     8
140
2.5
141
2.5
143
0.0393700787
147
0.625
171
     3
172
     1
178
     0
271
     2
272
     2
274
     3
278
    44
283
     0
284
     8
340
11
  0
ENDTAB
  0
TABLE
  2
BLOCK_RECORD
  5
1
330
0
100
AcDbSymbolTable
 70
     1
  0
BLOCK_RECORD
  5
1F
330
1
100
AcDbSymbolTableRecord
100
AcDbBlockTableRecord
  2
*Model_Space
340
22
  0
BLOCK_RECORD
  5
1B
330
1
100
AcDbSymbolTableRecord
100
AcDbBlockTableRecord
  2
*Paper_Space
340
1E
  0
BLOCK_RECORD
  5
23
330
1
100
AcDbSymbolTableRecord
100
AcDbBlockTableRecord
  2
*Paper_Space0
340
26
  0
ENDTAB
  0
ENDSEC
  0
SECTION
  2
BLOCKS
  0
BLOCK
  5
20
330
1F
100
AcDbEntity
  8
0
100
AcDbBlockBegin
  2
*Model_Space
 70
     0
 10
0.0
 20
0.0
 30
0.0
  3
*Model_Space
  1

  0
ENDBLK
  5
21
330
1F
100
AcDbEntity
  8
0
100
AcDbBlockEnd
  0
BLOCK
  5
1C
330
1B
100
AcDbEntity
 67
     1
  8
0
100
AcDbBlockBegin
  2
*Paper_Space
 70
     0
 10
0.0
 20
0.0
 30
0.0
  3
*Paper_Space
  1

  0
ENDBLK
  5
1D
330
1B
100
AcDbEntity
 67
     1
  8
0
100
AcDbBlockEnd
  0
BLOCK
  5
24
330
23
100
AcDbEntity
  8
0
100
AcDbBlockBegin
  2
*Paper_Space0
 70
     0
 10
0.0
 20
0.0
 30
0.0
  3
*Paper_Space0
  1

  0
ENDBLK
  5
25
330
23
100
AcDbEntity
  8
0
100
AcDbBlockEnd
  0
ENDSEC
  0
SECTION
  2
ENTITIES
  0
LINE
  5
78
330
1F
100
AcDbEntity
  8
0
  6
Continuous
 62
     7
370
    25
100
AcDbLine
 10
330.4691165589
 20
113.8710888545
 30
0.0
 11
358.0109251298
 21
97.9715411979
 31
0.0
  0
LINE
  5
79
330
1F
100
AcDbEntity
  8
0
  6
Continuous
 62
     7
370
    25
100
AcDbLine
 10
332.7549688003
 20
114.2834983603
 30
0.0
 11
331.2190554542
 21
115.1701622618
 31
0.0
  0
LINE
  5
7A
330
1F
100
AcDbEntity
  8
0
  6
Continuous
 62
     7
370
    25
100
AcDbLine
 10
356.7609149306
 20
100.4251606423
 30
0.0
 11
333.2188096196
 21
114.015728755
 31
0.0
  0
LINE
  5
7B
330
1F
100
AcDbEntity
  8
0
  6
Continuous
 62
     7
370
    25
100
AcDbLine
 10
358.7608640251
 20
99.2706146053
 30
0.0
 11
357.224803165
 21
100.1573636648
 31
0.0
  0
LINE
  5
7C
330
1F
100
AcDbEntity
  8
0
  6
Continuous
 62
     7
370
    25
100
AcDbLine
 10
357.8612880125
 20
101.0809172317
 30
0.0
 11
356.7431384436
 21
100.4354232252
 31
0.0
  0
LINE
  5
7D
330
1F
100
AcDbEntity
  8
0
  6
Continuous
 62
     7
370
    25
100
AcDbLine
 10
357.9932392585
 20
99.7137536564
 30
0.0
 11
358.4862372676
 21
99.9983553491
 31
0.0
  0
LINE
  5
7E
330
1F
100
AcDbEntity
  8
0
  6
Continuous
 62
     7
370
    25
100
AcDbLine
 10
333.8550120832
 20
114.9394453386
 30
0.0
 11
332.7368625142
 21
114.2939513322
 31
0.0
  0
LINE
  5
7F
330
1F
100
AcDbEntity
  8
0
  6
Continuous
 62
     7
370
    25
100
AcDbLine
 10
333.9869633291
 20
113.5722817634
 30
0.0
 11
334.4799613382
 21
113.8568834561
 31
0.0
  0
LINE
  5
80
330
1F
100
AcDbEntity
  8
0
  6
Continuous
 62
     7
370
    25
100
AcDbLine
 10
330.7128043687
 20
161.2778518575
 30
0.0
 11
330.7128043687
 21
120.6141197565
 31
0.0
  0
LINE
  5
81
330
1F
100
AcDbEntity
  8
0
  6
Continuous
 62
     7
370
    25
100
AcDbLine
 10
332.2128043851
 20
159.5051167356
 30
0.0
 11
332.2128043851
 21
161.2778518575
 31
0.0
  0
LINE
  5
82
330
1F
100
AcDbEntity
  8
0
  6
Continuous
 62
     7
370
    25
100
AcDbLine
 10
332.2128043851
 20
122.9241699723
 30
0.0
 11
332.2128043851
 21
158.9678016417
 31
0.0
  0
LINE
  5
83
330
1F
100
AcDbEntity
  8
0
  6
Continuous
 62
     7
370
    25
100
AcDbLine
 10
332.2128043851
 20
120.6141197565
 30
0.0
 11
332.2128043851
 21
122.3868542701
 31
0.0
  0
LINE
  5
84
330
1F
100
AcDbEntity
  8
0
  6
Continuous
 62
     7
370
    25
100
AcDbLine
 10
332.7059636059
 20
160.6758285921
 30
0.0
 11
332.2128033315
 21
160.3911332256
 31
0.0
  0
LINE
  5
85
330
1F
100
AcDbEntity
  8
0
  6
Continuous
 62
     7
370
    25
100
AcDbLine
 10
332.2128033315
 20
158.9477970342
 30
0.0
 11
333.3309128609
 21
159.5932679263
 31
0.0
  0
LINE
  5
86
330
1F
100
AcDbEntity
  8
0
  6
Continuous
 62
     7
370
    25
100
AcDbLine
 10
332.7059636059
 20
124.0948009156
 30
0.0
 11
332.2128033315
 21
123.8101055491
 31
0.0
  0
LINE
  5
87
330
1F
100
AcDbEntity
  8
0
  6
Continuous
 62
     7
370
    25
100
AcDbLine
 10
332.2128033315
 20
122.3667687493
 30
0.0
 11
333.3309128609
 21
123.0122396414
 31
0.0
  0
LINE
  5
88
330
1F
100
AcDbEntity
  8
0
  6
Continuous
 62
     7
370
    25
100
AcDbLine
 10
363.6728179086
 20
154.7456529967
 30
0.0
 11
363.6728179086
 21
81.2692271514
 31
0.0
  0
LINE
  5
89
330
1F
100
AcDbEntity
  8
0
  6
Continuous
 62
     7
370
    25
100
AcDbLine
 10
366.1314448334
 20
79.0397463505
 30
0.0
 11
365.9620424247
 21
79.143892677
 31
0.0
  0
SPLINE
  5
8A
330
1F
100
AcDbEntity
  8
0
  6
Continuous
 62
     7
370
    25
100
AcDbSpline
210
0.0
220
0.0
230
1.0
 70
     8
 71
     3
 72
    14
 73
    10
 74
     0
 42
0.000000001
 43
0.00000001
 40
0.0
 40
0.0
 40
0.0
 40
0.0
 40
0.1173698001112296
 40
0.2706438931306345
 40
0.4247620215896137
 40
0.5816299138948477
 40
0.7418716381723204
 40
0.9048644057547209
 40
1.0
 40
1.0
 40
1.0
 40
1.0
 10
366.4005039923034
 20
78.62782031253506
 30
0.0
 10
366.4004895921885
 20
78.64717005725313
 30
0.0
 10
366.4004563868567
 20
78.69178877720168
 30
0.0
 10
366.3818071095664
 20
78.76056187957825
 30
0.0
 10
366.348461405994
 20
78.83233571938469
 30
0.0
 10
366.3001133888327
 20
78.90049159432839
 30
0.0
 10
366.2376209553643
 20
78.96416614712403
 30
0.0
 10
366.1729331172642
 20
79.01449098364874
 30
0.0
 10
366.1274617000081
 20
79.04197405558294
 30
0.0
 10
366.110702788778
 20
79.05210319583561
 30
0.0
  0
LINE
  5
8B
330
1F
100
AcDbEntity
  8
0
  6
Continuous
 62
     7
370
    25
100
AcDbLine
 10
364.5203004164
 20
78.6377493515
 30
0.0
 11
364.5214115127
 21
78.6159000598
 31
0.0
  0
LINE
  5
8C
330
1F
100
AcDbEntity
  8
0
  6
Continuous
 62
     7
370
    25
100
AcDbLine
 10
366.4019975712
 20
78.556164149
 30
0.0
 11
366.4019975712
 21
78.6334417796
 31
0.0
  0
LINE
  5
8D
330
1F
100
AcDbEntity
  8
0
  6
Continuous
 62
     7
370
    25
100
AcDbLine
 10
364.5189980788
 20
78.6334414755
 30
0.0
 11
364.5189980788
 21
78.5561638449
 31
0.0
  0
SPLINE
  5
8E
330
1F
100
AcDbEntity
  8
0
  6
Continuous
 62
     7
370
    25
100
AcDbSpline
210
0.0
220
0.0
230
1.0
 70
     8
 71
     3
 72
    32
 73
    28
 74
     0
 42
0.000000001
 43
0.00000001
 40
0.0
 40
0.0
 40
0.0
 40
0.0
 40
0.0204344703004392
 40
0.0601295327556056
 40
0.1000763108068567
 40
0.1407542232385051
 40
0.1823034917936827
 40
0.2245506981843301
 40
0.2671876383334542
 40
0.3099454264877562
 40
0.3526587071622198
 40
0.3952918339720336
 40
0.437852278306972
 40
0.4803629790452771
 40
0.5228570058689888
 40
0.5653672732395222
 40
0.6079194873100747
 40
0.6505507791171863
 40
0.6932964229689407
 40
0.7361851269873321
 40
0.7792238252798374
 40
0.8223664190031057
 40
0.865394684817197
 40
0.9079737299244718
 40
0.9497163626260291
 40
0.9904464743497786
 40
1.0
 40
1.0
 40
1.0
 40
1.0
 10
364.5214115127186
 20
78.53861999566297
 30
0.0
 10
364.521675000484
 20
78.52562154182452
 30
0.0
 10
364.5224503274674
 20
78.48737288921151
 30
0.0
 10
364.540858118861
 20
78.42499866929593
 30
0.0
 10
364.5747727417337
 20
78.35339163536852
 30
0.0
 10
364.6240097263711
 20
78.28547737571317
 30
0.0
 10
364.6871380996882
 20
78.22199153761275
 30
0.0
 10
364.7637048321336
 20
78.16396815581724
 30
0.0
 10
364.8523469892004
 20
78.11252098713742
 30
0.0
 10
364.951370171088
 20
78.06863014127211
 30
0.0
 10
365.0588724916659
 20
78.033011517303
 30
0.0
 10
365.1729331899556
 20
78.00617803954852
 30
0.0
 10
365.2916386839221
 20
77.98846100725365
 30
0.0
 10
365.4130541026335
 20
77.98008201200673
 30
0.0
 10
365.5352196777729
 20
77.98113797413131
 30
0.0
 10
365.6561678430536
 20
77.99161600670112
 30
0.0
 10
365.7739553561964
 20
78.01137964935435
 30
0.0
 10
365.886697505661
 20
78.04019935272177
 30
0.0
 10
365.9925917255973
 20
78.07774523988233
 30
0.0
 10
366.0899162744298
 20
78.12363091419382
 30
0.0
 10
366.1770070719056
 20
78.17737292330881
 30
0.0
 10
366.2522210492194
 20
78.2383824493231
 30
0.0
 10
366.3137530286424
 20
78.30580105662844
 30
0.0
 10
366.3605307547199
 20
78.37837062909506
 30
0.0
 10
366.3896238431511
 20
78.45435139928267
 30
0.0
 10
366.4026686443565
 20
78.51254177534359
 30
0.0
 10
366.4008495979081
 20
78.54447550529756
 30
0.0
 10
366.4005039923034
 20
78.55054268190123
 30
0.0
  0
LINE
  5
8F
330
1F
100
AcDbEntity
  8
0
  6
Continuous
 62
     7
370
    25
100
AcDbLine
 10
365.8761898211
 20
78.9329981506
 30
0.0
 11
365.8761898211
 21
79.0644596748
 31
0.0
  0
LINE
  5
90
330
1F
100
AcDbEntity
  8
0
  6
Continuous
 62
     7
370
    25
100
AcDbLine
 10
361.7092963352
 20
162.0663181869
 30
0.0
 11
361.7092963352
 21
154.1050455631
 31
0.0
  0
LINE
  5
91
330
1F
100
AcDbEntity
  8
0
  6
Continuous
 62
     7
370
    25
100
AcDbLine
 10
361.7092963352
 20
154.1050455631
 30
0.0
 11
330.6319530155
 21
172.0456139858
 31
0.0
  0
LINE
  5
92
330
1F
100
AcDbEntity
  8
0
  6
Continuous
 62
     7
370
    25
100
AcDbLine
 10
330.6319530155
 20
172.0456139858
 30
0.0
 11
330.6319530155
 21
180.0068866097
 31
0.0
  0
LINE
  5
93
330
1F
100
AcDbEntity
  8
0
  6
Continuous
 62
     7
370
    25
100
AcDbLine
 10
330.6319530155
 20
180.0068866097
 30
0.0
 11
361.7092963352
 21
162.0663181869
 31
0.0
  0
LINE
  5
94
330
1F
100
AcDbEntity
  8
0
  6
Continuous
 62
     7
370
    25
100
AcDbLine
 10
361.3910981657
 20
161.8825690121
 30
0.0
 11
330.950151185
 21
179.4557536483
 31
0.0
  0
LINE
  5
95
330
1F
100
AcDbEntity
  8
0
  6
Continuous
 62
     7
370
    25
100
AcDbLine
 10
330.950151185
 20
179.4557536483
 30
0.0
 11
330.950151185
 21
172.2293655941
 31
0.0
  0
LINE
  5
96
330
1F
100
AcDbEntity
  8
0
  6
Continuous
 62
     7
370
    25
100
AcDbLine
 10
330.950151185
 20
172.2293655941
 30
0.0
 11
361.3910981657
 21
154.656180958
 31
0.0
  0
LINE
  5
97
330
1F
100
AcDbEntity
  8
0
  6
Continuous
 62
     7
370
    25
100
AcDbLine
 10
361.3910981657
 20
154.656180958
 30
0.0
 11
361.3910981657
 21
161.8825690121
 31
0.0
  0
LINE
  5
98
330
1F
100
AcDbEntity
  8
0
  6
Continuous
 62
     7
370
    25
100
AcDbLine
 10
364.1488149326
 20
163.4746222966
 30
0.0
 11
333.0714716129
 21
181.4151907194
 31
0.0
  0
LINE
  5
99
330
1F
100
AcDbEntity
  8
0
  6
Continuous
 62
     7
370
    25
100
AcDbLine
 10
361.7092963352
 20
162.0663181869
 30
0.0
 11
364.1488149326
 21
163.4746222966
 31
0.0
  0
LINE
  5
9A
330
1F
100
AcDbEntity
  8
0
  6
Continuous
 62
     7
370
    25
100
AcDbLine
 10
330.6319530155
 20
180.0068866097
 30
0.0
 11
333.0714716129
 21
181.4151907194
 31
0.0
  0
LINE
  5
9B
330
1F
100
AcDbEntity
  8
0
  6
Continuous
 62
     7
370
    25
100
AcDbLine
 10
364.1488149326
 20
155.5133496727
 30
0.0
 11
364.1488149326
 21
163.4746222966
 31
0.0
  0
LINE
  5
9C
330
1F
100
AcDbEntity
  8
0
  6
Continuous
 62
     7
370
    25
100
AcDbLine
 10
361.7092963352
 20
154.1050455631
 30
0.0
 11
364.1488149326
 21
155.5133496727
 31
0.0
  0
LINE
  5
9D
330
1F
100
AcDbEntity
  8
0
  6
Continuous
 62
     7
370
    25
100
AcDbLine
 10
330.9855071226
 20
178.8229302232
 30
0.0
 11
361.3910992194
 21
161.2701555271
 31
0.0
  0
LINE
  5
9E
330
1F
100
AcDbEntity
  8
0
  6
Continuous
 62
     7
370
    25
100
AcDbLine
 10
330.9855071226
 20
178.8229302232
 30
0.0
 11
330.9855071226
 21
179.4268813342
 31
0.0
  0
LINE
  5
9F
330
1F
100
AcDbEntity
  8
0
  6
Continuous
 62
     7
370
    25
100
AcDbLine
 10
331.056217944
 20
178.1128457746
 30
0.0
 11
361.3910981657
 21
160.600892175
 31
0.0
  0
LINE
  5
A0
330
1F
100
AcDbEntity
  8
0
  6
Continuous
 62
     7
370
    25
100
AcDbLine
 10
331.056217944
 20
178.1128457746
 30
0.0
 11
331.056217944
 21
178.7821066555
 31
0.0
  0
LINE
  5
A1
330
1F
100
AcDbEntity
  8
0
  6
Continuous
 62
     7
370
    25
100
AcDbLine
 10
330.9855071226
 20
178.0472086083
 30
0.0
 11
361.3910981657
 21
160.4944345204
 31
0.0
  0
LINE
  5
A2
330
1F
100
AcDbEntity
  8
0
  6
Continuous
 62
     7
370
    25
100
AcDbLine
 10
330.9855071226
 20
177.3939851652
 30
0.0
 11
361.3910992194
 21
159.841210469
 31
0.0
  0
LINE
  5
A3
330
1F
100
AcDbEntity
  8
0
  6
Continuous
 62
     7
370
    25
100
AcDbLine
 10
330.9855071226
 20
177.3939851652
 30
0.0
 11
330.9855071226
 21
177.9979314092
 31
0.0
  0
LINE
  5
A4
330
1F
100
AcDbEntity
  8
0
  6
Continuous
 62
     7
370
    25
100
AcDbLine
 10
331.056217944
 20
176.6839007166
 30
0.0
 11
361.3910981657
 21
159.171947117
 31
0.0
  0
LINE
  5
A5
330
1F
100
AcDbEntity
  8
0
  6
Continuous
 62
     7
370
    25
100
AcDbLine
 10
331.056217944
 20
176.6839007166
 30
0.0
 11
331.056217944
 21
177.3531615974
 31
0.0
  0
LINE
  5
A6
330
1F
100
AcDbEntity
  8
0
  6
Continuous
 62
     7
370
    25
100
AcDbLine
 10
330.9855071226
 20
176.6182635503
 30
0.0
 11
361.3910981657
 21
159.0654894624
 31
0.0
  0
LINE
  5
A7
330
1F
100
AcDbEntity
  8
0
  6
Continuous
 62
     7
370
    25
100
AcDbLine
 10
330.9855071226
 20
175.9650352402
 30
0.0
 11
361.3910992194
 21
158.412260544
 31
0.0
  0
LINE
  5
A8
330
1F
100
AcDbEntity
  8
0
  6
Continuous
 62
     7
370
    25
100
AcDbLine
 10
330.9855071226
 20
175.9650352402
 30
0.0
 11
330.9855071226
 21
176.5689863512
 31
0.0
  0
LINE
  5
A9
330
1F
100
AcDbEntity
  8
0
  6
Continuous
 62
     7
370
    25
100
AcDbLine
 10
331.056217944
 20
175.2549556585
 30
0.0
 11
361.3910981657
 21
157.7430020589
 31
0.0
  0
LINE
  5
AA
330
1F
100
AcDbEntity
  8
0
  6
Continuous
 62
     7
370
    25
100
AcDbLine
 10
331.056217944
 20
175.2549556585
 30
0.0
 11
331.056217944
 21
175.9242165394
 31
0.0
  0
LINE
  5
AB
330
1F
100
AcDbEntity
  8
0
  6
Continuous
 62
     7
370
    25
100
AcDbLine
 10
330.9855071226
 20
175.1893184922
 30
0.0
 11
361.3910981657
 21
157.6365444043
 31
0.0
  0
LINE
  5
AC
330
1F
100
AcDbEntity
  8
0
  6
Continuous
 62
     7
370
    25
100
AcDbLine
 10
330.9855071226
 20
174.5360901821
 30
0.0
 11
361.3910992194
 21
156.983315486
 31
0.0
  0
LINE
  5
AD
330
1F
100
AcDbEntity
  8
0
  6
Continuous
 62
     7
370
    25
100
AcDbLine
 10
330.9855071226
 20
174.5360901821
 30
0.0
 11
330.9855071226
 21
175.1400412931
 31
0.0
  0
LINE
  5
AE
330
1F
100
AcDbEntity
  8
0
  6
Continuous
 62
     7
370
    25
100
AcDbLine
 10
331.056217944
 20
173.8260057335
 30
0.0
 11
361.3910981657
 21
156.3140521339
 31
0.0
  0
LINE
  5
AF
330
1F
100
AcDbEntity
  8
0
  6
Continuous
 62
     7
370
    25
100
AcDbLine
 10
331.056217944
 20
173.8260057335
 30
0.0
 11
331.056217944
 21
174.4952714813
 31
0.0
  0
LINE
  5
B0
330
1F
100
AcDbEntity
  8
0
  6
Continuous
 62
     7
370
    25
100
AcDbLine
 10
330.9855071226
 20
173.7603710007
 30
0.0
 11
361.3910981657
 21
156.2075969128
 31
0.0
  0
LINE
  5
B1
330
1F
100
AcDbEntity
  8
0
  6
Continuous
 62
     7
370
    25
100
AcDbLine
 10
330.9855071226
 20
173.1071426906
 30
0.0
 11
361.3910992194
 21
155.5543679944
 31
0.0
  0
LINE
  5
B2
330
1F
100
AcDbEntity
  8
0
  6
Continuous
 62
     7
370
    25
100
AcDbLine
 10
330.9855071226
 20
173.1071426906
 30
0.0
 11
330.9855071226
 21
173.7110938016
 31
0.0
  0
LINE
  5
B3
330
1F
100
AcDbEntity
  8
0
  6
Continuous
 62
     7
370
    25
100
AcDbLine
 10
331.056217944
 20
172.3970606754
 30
0.0
 11
361.3910981657
 21
154.8851070759
 31
0.0
  0
LINE
  5
B4
330
1F
100
AcDbEntity
  8
0
  6
Continuous
 62
     7
370
    25
100
AcDbLine
 10
331.056217944
 20
172.3970606754
 30
0.0
 11
331.056217944
 21
173.0663215563
 31
0.0
  0
LINE
  5
B5
330
1F
100
AcDbEntity
  8
0
  6
Continuous
 62
     7
370
    25
100
AcDbLine
 10
330.9855071226
 20
172.2497761424
 30
0.0
 11
330.950151185
 21
172.2293655941
 31
0.0
  0
LINE
  5
B6
330
1F
100
AcDbEntity
  8
0
  6
Continuous
 62
     7
370
    25
100
AcDbLine
 10
361.3910992194
 20
154.6970014463
 30
0.0
 11
330.9855071226
 21
172.2497761424
 31
0.0
  0
LINE
  5
B7
330
1F
100
AcDbEntity
  8
0
  6
Continuous
 62
     7
370
    25
100
AcDbLine
 10
330.9855534841
 20
172.2497486097
 30
0.0
 11
331.148475288
 21
172.3438013652
 31
0.0
  0
LINE
  5
B8
330
1F
100
AcDbEntity
  8
0
  6
Continuous
 62
     7
370
    25
100
AcDbLine
 10
332.2939086194
 20
173.0050459524
 30
0.0
 11
332.3861132799
 21
173.0582745698
 31
0.0
  0
LINE
  5
B9
330
1F
100
AcDbEntity
  8
0
  6
Continuous
 62
     7
370
    25
100
AcDbLine
 10
330.9855071226
 20
177.9979314092
 30
0.0
 11
330.9855071226
 21
178.8229302232
 31
0.0
  0
LINE
  5
BA
330
1F
100
AcDbEntity
  8
0
  6
Continuous
 62
     7
370
    25
100
AcDbLine
 10
330.9855071226
 20
176.5689863512
 30
0.0
 11
330.9855071226
 21
177.3939851652
 31
0.0
  0
LINE
  5
BB
330
1F
100
AcDbEntity
  8
0
  6
Continuous
 62
     7
370
    25
100
AcDbLine
 10
330.9855071226
 20
175.1400412931
 30
0.0
 11
330.9855071226
 21
175.9650352402
 31
0.0
  0
LINE
  5
BC
330
1F
100
AcDbEntity
  8
0
  6
Continuous
 62
     7
370
    25
100
AcDbLine
 10
330.9855071226
 20
173.7110938016
 30
0.0
 11
330.9855071226
 21
174.5360901821
 31
0.0
  0
LINE
  5
BD
330
1F
100
AcDbEntity
  8
0
  6
Continuous
 62
     7
370
    25
100
AcDbLine
 10
330.9855071226
 20
172.2497761424
 30
0.0
 11
330.9855071226
 21
173.1071426906
 31
0.0
  0
LINE
  5
BE
330
1F
100
AcDbEntity
  8
0
  6
Continuous
 62
     7
370
    25
100
AcDbLine
 10
330.9855071226
 20
179.4268813342
 30
0.0
 11
330.9855071226
 21
179.4353401151
 31
0.0
  0
LINE
  5
BF
330
1F
100
AcDbEntity
  8
0
  6
Continuous
 62
     7
370
    25
100
AcDbLine
 10
333.1068275504
 20
176.9290549231
 30
0.0
 11
333.1068275504
 21
176.8225949853
 31
0.0
  0
LINE
  5
C0
330
1F
100
AcDbEntity
  8
0
  6
Continuous
 62
     7
370
    25
100
AcDbLine
 10
333.1068275504
 20
175.5001098651
 30
0.0
 11
333.1068275504
 21
175.3936499273
 31
0.0
  0
LINE
  5
C1
330
1F
100
AcDbEntity
  8
0
  6
Continuous
 62
     7
370
    25
100
AcDbLine
 10
333.1068275504
 20
174.0711623735
 30
0.0
 11
333.1068275504
 21
173.9647048692
 31
0.0
  0
LWPOLYLINE
  5
C2
330
1F
100
AcDbEntity
  8
0
  6
Continuous
 62
     7
370
    25
100
AcDbPolyline
 90
       21
 70
   128
 43
0.0
 10
334.4799613382
 20
113.8568834561
 10
334.4865499443
 20
113.8608500404
 10
334.5336395645
 20
113.9010123749
 10
334.5701966872
 20
113.9554752905
 10
334.5951686949
 20
114.0226745683
 10
334.6078369839
 20
114.1006755232
 10
334.6078369839
 20
114.187235668
 10
334.5951686949
 20
114.2798631181
 10
334.5701966872
 20
114.3758932455
 10
334.5336395645
 20
114.4725653333
 10
334.4865499443
 20
114.567096186
 10
334.4302807405
 20
114.6567665154
 10
334.3664503921
 20
114.7389994165
 10
334.2968975554
 20
114.8114254596
 10
334.2236210445
 20
114.8719635974
 10
334.1487303094
 20
114.9188704385
 10
334.074379054
 20
114.9507980363
 10
334.0027062307
 20
114.9668267357
 10
333.9357738743
 20
114.9664974106
 10
333.8755070419
 20
114.9498169337
 10
333.8550120832
 20
114.9394453386
  0
LWPOLYLINE
  5
C3
330
1F
100
AcDbEntity
  8
0
  6
Continuous
 62
     7
370
    25
100
AcDbPolyline
 90
       21
 70
   128
 43
0.0
 10
358.4862372676
 20
99.9983553491
 10
358.49282482
 20
100.0023225417
 10
358.5399154938
 20
100.042484268
 10
358.5764726165
 20
100.0969471836
 10
358.6014435706
 20
100.1641470696
 10
358.6141118596
 20
100.2421480245
 10
358.6141118596
 20
100.3287081693
 10
358.6014435706
 20
100.4213356194
 10
358.5764726165
 20
100.5173651386
 10
358.5399154938
 20
100.6140372263
 10
358.49282482
 20
100.7085686874
 10
358.4365556162
 20
100.7982390167
 10
358.3727263215
 20
100.8804713095
 10
358.303172431
 20
100.9528979609
 10
358.2298969739
 20
101.0134354904
 10
358.1550062388
 20
101.0603423315
 10
358.0806539297
 20
101.0922705376
 10
358.0089811064
 20
101.1082992371
 10
357.94204875
 20
101.107969912
 10
357.8817829713
 20
101.0912888268
 10
357.8612880125
 20
101.0809172317
  0
LINE
  5
C4
330
1F
100
AcDbEntity
  8
0
  6
Continuous
 62
     7
370
    25
100
AcDbLine
 10
330.6319530155
 20
97.4137834096
 30
0.0
 11
361.7092963352
 21
79.4732149868
 31
0.0
  0
LINE
  5
C5
330
1F
100
AcDbEntity
  8
0
  6
Continuous
 62
     7
370
    25
100
AcDbLine
 10
330.6319530155
 20
118.4805364633
 30
0.0
 11
330.6319530155
 21
114.9594436179
 31
0.0
  0
LINE
  5
C6
330
1F
100
AcDbEntity
  8
0
  6
Continuous
 62
     7
370
    25
100
AcDbLine
 10
330.6319530155
 20
113.7770844319
 30
0.0
 11
330.6319530155
 21
97.4137834096
 31
0.0
  0
LINE
  5
C7
330
1F
100
AcDbEntity
  8
0
  6
Continuous
 62
     7
370
    25
100
AcDbLine
 10
361.7092963352
 20
100.5399680405
 30
0.0
 11
330.6319530155
 21
118.4805364633
 31
0.0
  0
LINE
  5
C8
330
1F
100
AcDbEntity
  8
0
  6
Continuous
 62
     7
370
    25
100
AcDbLine
 10
361.7092963352
 20
79.4732149868
 30
0.0
 11
361.7092963352
 21
100.5399680405
 31
0.0
  0
LINE
  5
C9
330
1F
100
AcDbEntity
  8
0
  6
Continuous
 62
     7
370
    25
100
AcDbLine
 10
361.7092963352
 20
100.5399680405
 30
0.0
 11
363.6728179086
 21
101.6734849173
 31
0.0
  0
LINE
  5
CA
330
1F
100
AcDbEntity
  8
0
  6
Continuous
 62
     7
370
    25
100
AcDbLine
 10
330.6319530155
 20
118.4805364633
 30
0.0
 11
330.914841609
 21
118.6438445722
 31
0.0
  0
LINE
  5
CB
330
1F
100
AcDbEntity
  8
0
  6
Continuous
 62
     7
370
    25
100
AcDbLine
 10
363.6728179086
 20
101.8148557166
 30
0.0
 11
363.5123732857
 21
101.9074784258
 31
0.0
  0
LINE
  5
CC
330
1F
100
AcDbEntity
  8
0
  6
Continuous
 62
     7
370
    25
100
AcDbLine
 10
361.7092963352
 20
79.4732149868
 30
0.0
 11
363.7952618792
 21
80.6774172632
 31
0.0
  0
LINE
  5
CD
330
1F
100
AcDbEntity
  8
0
  6
Continuous
 62
     7
370
    25
100
AcDbLine
 10
363.7952618792
 20
80.6774172632
 30
0.0
 11
363.7952618792
 21
81.2204826733
 31
0.0
  0
LWPOLYLINE
  5
CE
330
1F
100
AcDbEntity
  8
0
  6
Continuous
 62
     7
370
    25
100
AcDbPolyline
 90
       42
 70
   128
 43
0.0
 10
358.3858940506
 20
99.2334832307
 10
358.3049394377
 20
99.1795715744
 10
358.2258824866
 20
99.1125694361
 10
358.150576605
 20
99.0340480623
 10
358.0807856386
 20
98.9458469993
 10
358.0181459386
 20
98.8500327276
 10
357.9641263229
 20
98.7488524292
 10
357.9199933041
 20
98.6446774129
 10
357.8867794802
 20
98.5399483633
 10
357.8652645677
 20
98.43712059
 10
357.8559532752
 20
98.3386062338
 10
357.8590637126
 20
98.2467116062
 10
357.874522123
 20
98.1635927784
 10
357.9019660434
 20
98.0911953527
 10
357.940753788
 20
98.0312197845
 10
357.9899749851
 20
97.9850690609
 10
358.0484758645
 20
97.9538255811
 10
358.1148856
 20
97.93822256
 10
358.1876479193
 20
97.9386245573
 10
358.2650569286
 20
97.9550226076
 10
358.3452982061
 20
97.9870336079
 10
358.4264909488
 20
98.0339051806
 10
358.5067322263
 20
98.0945387873
 10
358.5841412356
 20
98.1675152768
 10
358.6569025012
 20
98.2511222568
 10
358.7233132904
 20
98.3434009348
 10
358.7818141698
 20
98.4421880922
 10
358.8310353669
 20
98.5451684002
 10
358.8698220579
 20
98.649926737
 10
358.897267032
 20
98.754010847
 10
358.9127254423
 20
98.8549775754
 10
358.9158348261
 20
98.9504628294
 10
358.9065235336
 20
99.0382265961
 10
358.8850096747
 20
99.1162143885
 10
358.8517958508
 20
99.1825955731
 10
358.8076617784
 20
99.2358150824
 10
358.7536421626
 20
99.27462566
 10
358.6910035164
 20
99.2981182819
 10
358.6212125499
 20
99.3057404102
 10
358.5459056147
 20
99.2973148555
 10
358.4668486636
 20
99.273039781
 10
358.3858940506
 20
99.2334832307
  0
SPLINE
  5
CF
330
1F
100
AcDbEntity
  8
0
  6
Continuous
 62
     7
370
    25
100
AcDbSpline
210
0.0
220
0.0
230
1.0
 70
     8
 71
     3
 72
    14
 73
    10
 74
     0
 42
0.000000001
 43
0.00000001
 40
0.0
 40
0.0
 40
0.0
 40
0.0
 40
0.0542718074559109
 40
0.2243337030106177
 40
0.4070054734829588
 40
0.5913139553738823
 40
0.7916044730179084
 40
0.9495235665599323
 40
0.9999999999999999
 40
0.9999999999999999
 40
0.9999999999999999
 40
0.9999999999999999
 10
332.7544609308005
 20
114.2826406058199
 30
0.0
 10
332.7568587292288
 20
114.2815617035286
 30
0.0
 10
332.7667700814705
 20
114.2771020373124
 30
0.0
 10
332.7960539430064
 20
114.2523122150342
 30
0.0
 10
332.8544646465816
 20
114.2086668939419
 30
0.0
 10
332.9556773348743
 20
114.1501874099177
 30
0.0
 10
333.074104907847
 20
114.0922264989005
 30
0.0
 10
333.1645430848346
 20
114.0474887992854
 30
0.0
 10
333.207845004294
 20
114.0212750926108
 30
0.0
 10
333.2183333601963
 20
114.0149257508599
 30
0.0
  0
SPLINE
  5
D0
330
1F
100
AcDbEntity
  8
0
  6
Continuous
 62
     7
370
    25
100
AcDbSpline
210
0.0
220
0.0
230
1.0
 70
     8
 71
     3
 72
    14
 73
    10
 74
     0
 42
0.000000001
 43
0.00000001
 40
0.0
 40
0.0
 40
0.0
 40
0.0
 40
0.0619766751365331
 40
0.232861367695786
 40
0.413825572879683
 40
0.5963319047937266
 40
0.7989326283709284
 40
0.9588562607709157
 40
1.0
 40
1.0
 40
1.0
 40
1.0
 10
357.2242689537448
 20
100.1564554180316
 30
0.0
 10
357.2113507319112
 20
100.1642118186049
 30
0.0
 10
357.1628138460952
 20
100.1933544927145
 30
0.0
 10
357.0708900519783
 20
100.2382954774985
 30
0.0
 10
356.9555186858165
 20
100.2951654915968
 30
0.0
 10
356.8554889150748
 20
100.3534205080936
 30
0.0
 10
356.7988588526234
 20
100.3965983724341
 30
0.0
 10
356.7709481499659
 20
100.4200872204246
 30
0.0
 10
356.7622545016682
 20
100.423689299307
 30
0.0
 10
356.7604755496901
 20
100.4244263805799
 30
0.0
  0
LWPOLYLINE
  5
D1
330
1F
100
AcDbEntity
  8
0
  6
Continuous
 62
     7
370
    25
100
AcDbPolyline
 90
        7
 70
   128
 43
0.0
 10
330.3137558996
 20
114.2144718957
 10
330.3199704524
 20
114.1245760816
 10
330.3384708116
 20
114.0439640625
 10
330.3688218109
 20
113.9745248689
 10
330.4103132759
 20
113.9178853497
 10
330.4619716144
 20
113.8753730603
 10
330.4691165589
 20
113.8710888545
  0
LWPOLYLINE
  5
D2
330
1F
100
AcDbEntity
  8
0
  6
Continuous
 62
     7
370
    25
100
AcDbPolyline
 90
       17
 70
   128
 43
0.0
 10
331.2190554542
 20
115.1701622618
 10
331.1969283588
 20
115.1815104444
 10
331.1323562258
 20
115.2010725671
 10
331.0610268994
 20
115.2046844627
 10
330.9846136094
 20
115.1922644524
 10
330.9049054895
 20
115.1641007359
 10
330.8237728061
 20
115.1208556531
 10
330.7431153284
 20
115.0635395287
 10
330.66482545
 20
114.9935003338
 10
330.5907365587
 20
114.9123756292
 10
330.5225861583
 20
114.8220688426
 10
330.4619716144
 20
114.7246969529
 10
330.4103132759
 20
114.6225424321
 10
330.3688218109
 20
114.5179978871
 10
330.3384708116
 20
114.4135149589
 10
330.3199704524
 20
114.3115428797
 10
330.3137558996
 20
114.2144718957
  0
LINE
  5
D3
330
1F
100
AcDbEntity
  8
0
  6
Continuous
 62
     7
370
    25
100
AcDbLine
 10
361.7092963352
 20
100.8665838105
 30
0.0
 11
363.6728179086
 21
102.0001006872
 31
0.0
  0
LINE
  5
D4
330
1F
100
AcDbEntity
  8
0
  6
Continuous
 62
     7
370
    25
100
AcDbLine
 10
361.7092963352
 20
100.8665838105
 30
0.0
 11
361.7092963352
 21
153.7784285764
 31
0.0
  0
LINE
  5
D5
330
1F
100
AcDbEntity
  8
0
  6
Continuous
 62
     7
370
    25
100
AcDbLine
 10
361.7092963352
 20
153.7784285764
 30
0.0
 11
363.7952618792
 21
154.9826308528
 31
0.0
  0
LINE
  5
D6
330
1F
100
AcDbEntity
  8
0
  6
Continuous
 62
     7
370
    25
100
AcDbLine
 10
363.7952618792
 20
154.7785493811
 30
0.0
 11
363.7952618792
 21
154.9826308528
 31
0.0
  0
LWPOLYLINE
  5
D7
330
1F
100
AcDbEntity
  8
0
  6
Continuous
 62
     7
370
    25
100
AcDbPolyline
 90
       21
 70
   128
 43
0.0
 10
333.3309128609
 20
123.0122396414
 10
333.337501467
 20
123.0162062257
 10
333.3845910872
 20
123.0563685603
 10
333.4211482099
 20
123.1108320842
 10
333.4461202177
 20
123.1780307536
 10
333.4587885066
 20
123.2560317085
 10
333.4587885066
 20
123.342591245
 10
333.4461202177
 20
123.435218695
 10
333.4211482099
 20
123.5312494309
 10
333.3845910872
 20
123.6279209103
 10
333.337501467
 20
123.722451763
 10
333.2812322632
 20
123.8121227007
 10
333.2174019148
 20
123.8943549935
 10
333.1478490781
 20
123.9667810366
 10
333.0745725673
 20
124.0273191744
 10
332.9996818321
 20
124.0742260154
 10
332.9253305767
 20
124.1061536133
 10
332.8536577535
 20
124.1221829211
 10
332.786725397
 20
124.1218529876
 10
332.7264585646
 20
124.1051731191
 10
332.7059636059
 20
124.0948009156
  0
LWPOLYLINE
  5
D8
330
1F
100
AcDbEntity
  8
0
  6
Continuous
 62
     7
370
    25
100
AcDbPolyline
 90
       21
 70
   128
 43
0.0
 10
333.3309128609
 20
159.5932679263
 10
333.337501467
 20
159.5972345106
 10
333.3845910872
 20
159.6373968452
 10
333.4211482099
 20
159.6918597607
 10
333.4461202177
 20
159.7590602552
 10
333.4587885066
 20
159.8370599934
 10
333.4587885066
 20
159.9236189215
 10
333.4461202177
 20
160.0162475883
 10
333.4211482099
 20
160.1122777157
 10
333.3845910872
 20
160.2089485868
 10
333.337501467
 20
160.3034794395
 10
333.2812322632
 20
160.3931522023
 10
333.2174019148
 20
160.47538267
 10
333.1478490781
 20
160.5478099298
 10
333.0745725673
 20
160.6083480676
 10
332.9996818321
 20
160.6552536919
 10
332.9253305767
 20
160.6871812898
 10
332.8536577535
 20
160.7032124227
 10
332.786725397
 20
160.7028818809
 10
332.7264585646
 20
160.6862026207
 10
332.7059636059
 20
160.6758285921
  0
LINE
  5
D9
330
1F
100
AcDbEntity
  8
0
  6
Continuous
 62
     7
370
    25
100
AcDbLine
 10
330.6319530155
 20
118.8071522332
 30
0.0
 11
361.7092963352
 21
100.8665838105
 31
0.0
  0
LINE
  5
DA
330
1F
100
AcDbEntity
  8
0
  6
Continuous
 62
     7
370
    25
100
AcDbLine
 10
330.6319530155
 20
171.7189969992
 30
0.0
 11
330.6319530155
 21
118.8071522332
 31
0.0
  0
LINE
  5
DB
330
1F
100
AcDbEntity
  8
0
  6
Continuous
 62
     7
370
    25
100
AcDbLine
 10
361.7092963352
 20
153.7784285764
 30
0.0
 11
330.6319530155
 21
171.7189969992
 31
0.0
  0
LINE
  5
DC
330
1F
100
AcDbEntity
  8
0
  6
Continuous
 62
     7
370
    25
100
AcDbLine
 10
330.6319530155
 20
171.7189969992
 30
0.0
 11
330.914841609
 21
171.8823051081
 31
0.0
  0
LINE
  5
DD
330
1F
100
AcDbEntity
  8
0
  6
Continuous
 62
     7
370
    25
100
AcDbLine
 10
363.7952618792
 20
154.9826308528
 30
0.0
 11
363.5123732857
 21
155.1459389617
 31
0.0
  0
SPLINE
  5
DE
330
1F
100
AcDbEntity
  8
0
  6
Continuous
 62
     7
370
    25
100
AcDbSpline
210
0.0
220
0.0
230
1.0
 70
     8
 71
     3
 72
    14
 73
    10
 74
     0
 42
0.000000001
 43
0.00000001
 40
0.0
 40
0.0
 40
0.0
 40
0.0
 40
0.0235336449088464
 40
0.1521478671828298
 40
0.2834069171848699
 40
0.4575856144837231
 40
0.6327612708788074
 40
0.8529014065528092
 40
1.0
 40
1.0
 40
1.0
 40
1.0
 10
332.212153216326
 20
122.9241529407127
 30
0.0
 10
332.2123664605881
 20
122.9184505888319
 30
0.0
 10
332.2137451105933
 20
122.8815841926597
 30
0.0
 10
332.209574184046
 20
122.8114135635546
 30
0.0
 10
332.2033422719651
 20
122.7054411306851
 30
0.0
 10
332.1964535863132
 20
122.5919465878197
 30
0.0
 10
332.1995428113628
 20
122.4842463942319
 30
0.0
 10
332.2105586342821
 20
122.4190236523972
 30
0.0
 10
332.2118107727823
 20
122.396061979004
 30
0.0
 10
332.2123123206791
 20
122.386864610667
 30
0.0
  0
SPLINE
  5
DF
330
1F
100
AcDbEntity
  8
0
  6
Continuous
 62
     7
370
    25
100
AcDbSpline
210
0.0
220
0.0
230
1.0
 70
     8
 71
     3
 72
    14
 73
    10
 74
     0
 42
0.000000001
 43
0.00000001
 40
0.0
 40
0.0
 40
0.0
 40
0.0
 40
0.0235336635170231
 40
0.1521463690700233
 40
0.2834055228592838
 40
0.4575863110112589
 40
0.6327610997275628
 40
0.8529004955037067
 40
0.9999999999999999
 40
0.9999999999999999
 40
0.9999999999999999
 40
0.9999999999999999
 10
332.212153216326
 20
158.9677846100766
 30
0.0
 10
332.2123664611303
 20
158.96878194238
 30
0.0
 10
332.2137450999764
 20
158.9752297480346
 30
0.0
 10
332.209574148808
 20
158.999120099916
 30
0.0
 10
332.2033422354779
 20
159.044475826571
 30
0.0
 10
332.1964536152197
 20
159.1204482589998
 30
0.0
 10
332.1995428018424
 20
159.2450051654729
 30
0.0
 10
332.2105586673889
 20
159.3790608660788
 30
0.0
 10
332.2118107801998
 20
159.4690724536456
 30
0.0
 10
332.2123123206791
 20
159.505127076182
 30
0.0
  0
LWPOLYLINE
  5
E0
330
1F
100
AcDbEntity
  8
0
  6
Continuous
 62
     7
370
    25
100
AcDbPolyline
 90
       17
 70
   128
 43
0.0
 10
331.993133957
 20
120.3079663983
 10
331.9059637376
 20
120.2648204882
 10
331.8084064273
 20
120.2298619118
 10
331.7027495465
 20
120.2039100107
 10
331.5914681687
 20
120.187572448
 10
331.4771701302
 20
120.181233043
 10
331.3625359706
 20
120.185040214
 10
331.2502525515
 20
120.1989051532
 10
331.1429498362
 20
120.2225018274
 10
331.0431439916
 20
120.2552779258
 10
330.9531762751
 20
120.2964645936
 10
330.8751529755
 20
120.3450977203
 10
330.8109043196
 20
120.4000355805
 10
330.7619338963
 20
120.4599916802
 10
330.7293933682
 20
120.523560304
 10
330.7140424323
 20
120.5892517951
 10
330.7128043687
 20
120.6141197565
  0
LWPOLYLINE
  5
E1
330
1F
100
AcDbEntity
  8
0
  6
Continuous
 62
     7
370
    25
100
AcDbPolyline
 90
        7
 70
   128
 43
0.0
 10
332.2128043851
 20
120.6141197565
 10
332.2126663542
 20
120.6058259754
 10
332.2016860465
 20
120.5398437305
 10
332.1733854914
 20
120.4756023585
 10
332.1284295554
 20
120.4146073313
 10
332.0678729635
 20
120.3582886948
 10
331.993133957
 20
120.3079663983
  0
LWPOLYLINE
  5
E2
330
1F
100
AcDbEntity
  8
0
  6
Continuous
 62
     7
370
    25
100
AcDbPolyline
 90
       42
 70
   128
 43
0.0
 10
330.9324737431
 20
160.9716991075
 10
330.857733683
 20
161.0220207958
 10
330.797177091
 20
161.0783394322
 10
330.7522222087
 20
161.1393338512
 10
330.7239227073
 20
161.2035758315
 10
330.7129413459
 20
161.2695586846
 10
330.719536274
 20
161.3357355763
 10
330.7435536557
 20
161.4005554145
 10
330.784428723
 20
161.4624999535
 10
330.841203689
 20
161.5201160329
 10
330.9125498741
 20
161.5720538984
 10
330.9967929949
 20
161.6170951822
 10
331.0919595252
 20
161.6541857501
 10
331.1958167356
 20
161.6824551654
 10
331.3059338067
 20
161.7012410207
 10
331.4197271367
 20
161.7101029273
 10
331.53452883
 20
161.7088328566
 10
331.6476509714
 20
161.6974618302
 10
331.7564393631
 20
161.6762544463
 10
331.8583462281
 20
161.6457094875
 10
331.9509818402
 20
161.606542281
 10
332.0321745828
 20
161.5596707083
 10
332.1000215259
 20
161.5061933078
 10
332.1529326795
 20
161.4473637269
 10
332.1896678726
 20
161.3845621334
 10
332.209366256
 20
161.3192575029
 10
332.2115663215
 20
161.252983896
 10
332.1962153856
 20
161.1872924049
 10
332.1636727502
 20
161.1237237812
 10
332.1147044342
 20
161.0637676815
 10
332.0504547247
 20
161.008829213
 10
331.972431425
 20
160.9601973028
 10
331.8824626549
 20
160.9190100268
 10
331.7826589176
 20
160.8862339283
 10
331.6753562023
 20
160.8626372542
 10
331.5630717295
 20
160.8487729232
 10
331.4484375699
 20
160.8449657522
 10
331.3341405851
 20
160.8513045489
 10
331.2228581536
 20
160.8676415034
 10
331.1172002191
 20
160.8935940128
 10
331.0196429089
 20
160.9285525892
 10
330.9324737431
 20
160.9716991075
  0
LINE
  5
E3
330
1F
100
AcDbEntity
  8
0
  6
Continuous
 62
     7
370
    25
100
AcDbLine
 10
332.9477284657
 20
181.4866261177
 30
0.0
 11
364.2725580799
 21
163.4031868983
 31
0.0
  0
LINE
  5
E4
330
1F
100
AcDbEntity
  8
0
  6
Continuous
 62
     7
370
    25
100
AcDbLine
 10
351.332504629
 20
192.0999314862
 30
0.0
 11
332.9477284657
 21
181.4866261177
 31
0.0
  0
LINE
  5
E5
330
1F
100
AcDbEntity
  8
0
  6
Continuous
 62
     7
370
    25
100
AcDbLine
 10
382.6573342432
 20
174.0164922668
 30
0.0
 11
351.332504629
 21
192.0999314862
 31
0.0
  0
LINE
  5
E6
330
1F
100
AcDbEntity
  8
0
  6
Continuous
 62
     7
370
    25
100
AcDbLine
 10
364.2725580799
 20
163.4031868983
 30
0.0
 11
382.6573342432
 21
174.0164922668
 31
0.0
  0
LINE
  5
E7
330
1F
100
AcDbEntity
  8
0
  6
Continuous
 62
     7
370
    25
100
AcDbLine
 10
364.2725580799
 20
163.4031868983
 30
0.0
 11
364.2725580799
 21
155.4419142744
 31
0.0
  0
LINE
  5
E8
330
1F
100
AcDbEntity
  8
0
  6
Continuous
 62
     7
370
    25
100
AcDbLine
 10
382.6573342432
 20
174.0164922668
 30
0.0
 11
382.6573342432
 21
166.0552196429
 31
0.0
  0
LINE
  5
E9
330
1F
100
AcDbEntity
  8
0
  6
Continuous
 62
     7
370
    25
100
AcDbLine
 10
364.2725580799
 20
155.4419142744
 30
0.0
 11
382.6573342432
 21
166.0552196429
 31
0.0
  0
LWPOLYLINE
  5
EA
330
1F
100
AcDbEntity
  8
0
  6
Continuous
 62
     7
370
    25
100
AcDbPolyline
 90
       11
 70
   128
 43
0.0
 10
368.515905949
 20
164.587180483
 10
368.5596074893
 20
164.6204003977
 10
368.5990311246
 20
164.6663551212
 10
368.6303183108
 20
164.7205491589
 10
368.6504054988
 20
164.777670813
 10
368.657327065
 20
164.8321320823
 10
368.6504054988
 20
164.8785970144
 10
368.6303183108
 20
164.9125264949
 10
368.5990311246
 20
164.9305971164
 10
368.5596074893
 20
164.9310342795
 10
368.515905949
 20
164.9137974696
  0
LINE
  5
EB
330
1F
100
AcDbEntity
  8
0
  6
Continuous
 62
     7
370
    25
100
AcDbLine
 10
368.515905949
 20
164.9137974696
 30
0.0
 11
365.9703216463
 21
163.4442629316
 31
0.0
  0
LWPOLYLINE
  5
EC
330
1F
100
AcDbEntity
  8
0
  6
Continuous
 62
     7
370
    25
100
AcDbPolyline
 90
       11
 70
   128
 43
0.0
 10
365.9703216463
 20
163.4442629316
 10
365.9266201059
 20
163.4110430169
 10
365.8871959438
 20
163.3650879893
 10
365.8559092845
 20
163.3108942557
 10
365.8358215696
 20
163.2537722975
 10
365.8289000034
 20
163.1993158951
 10
365.8358215696
 20
163.1528460961
 10
365.8559092845
 20
163.1189169197
 10
365.8871959438
 20
163.1008459941
 10
365.9266201059
 20
163.1004091351
 10
365.9703216463
 20
163.117645945
  0
LINE
  5
ED
330
1F
100
AcDbEntity
  8
0
  6
Continuous
 62
     7
370
    25
100
AcDbLine
 10
365.9703216463
 20
163.117645945
 30
0.0
 11
368.515905949
 21
164.587180483
 31
0.0
  0
LWPOLYLINE
  5
EE
330
1F
100
AcDbEntity
  8
0
  6
Continuous
 62
     7
370
    25
100
AcDbPolyline
 90
       11
 70
   128
 43
0.0
 10
368.515905949
 20
162.8316184383
 10
368.5596074893
 20
162.864838353
 10
368.5990311246
 20
162.9107930765
 10
368.6303183108
 20
162.9649871142
 10
368.6504054988
 20
163.0221087683
 10
368.657327065
 20
163.0765651706
 10
368.6504054988
 20
163.1230349697
 10
368.6303183108
 20
163.1569644502
 10
368.5990311246
 20
163.1750350717
 10
368.5596074893
 20
163.1754722348
 10
368.515905949
 20
163.1582354249
  0
LINE
  5
EF
330
1F
100
AcDbEntity
  8
0
  6
Continuous
 62
     7
370
    25
100
AcDbLine
 10
368.515905949
 20
163.1582354249
 30
0.0
 11
365.9703216463
 21
161.6887008869
 31
0.0
  0
LWPOLYLINE
  5
F0
330
1F
100
AcDbEntity
  8
0
  6
Continuous
 62
     7
370
    25
100
AcDbPolyline
 90
       11
 70
   128
 43
0.0
 10
365.9703216463
 20
161.6887008869
 10
365.9266201059
 20
161.6554809722
 10
365.8871959438
 20
161.6095259446
 10
365.8559092845
 20
161.555332211
 10
365.8358215696
 20
161.4982102528
 10
365.8289000034
 20
161.4437489835
 10
365.8358215696
 20
161.3972840513
 10
365.8559092845
 20
161.363354875
 10
365.8871959438
 20
161.3452839494
 10
365.9266201059
 20
161.3448470904
 10
365.9703216463
 20
161.3620839003
  0
LINE
  5
F1
330
1F
100
AcDbEntity
  8
0
  6
Continuous
 62
     7
370
    25
100
AcDbLine
 10
365.9703216463
 20
161.3620839003
 30
0.0
 11
368.515905949
 21
162.8316184383
 31
0.0
  0
LWPOLYLINE
  5
F2
330
1F
100
AcDbEntity
  8
0
  6
Continuous
 62
     7
370
    25
100
AcDbPolyline
 90
       11
 70
   128
 43
0.0
 10
368.515905949
 20
161.0760563936
 10
368.5596074893
 20
161.1092763083
 10
368.5990311246
 20
161.1552310318
 10
368.6303183108
 20
161.2094202025
 10
368.6504054988
 20
161.2665418566
 10
368.657327065
 20
161.3210031259
 10
368.6504054988
 20
161.367472925
 10
368.6303183108
 20
161.4014024055
 10
368.5990311246
 20
161.41946816
 10
368.5596074893
 20
161.4199053231
 10
368.515905949
 20
161.4026733802
  0
LINE
  5
F3
330
1F
100
AcDbEntity
  8
0
  6
Continuous
 62
     7
370
    25
100
AcDbLine
 10
368.515905949
 20
161.4026733802
 30
0.0
 11
365.9703216463
 21
159.9331388422
 31
0.0
  0
LWPOLYLINE
  5
F4
330
1F
100
AcDbEntity
  8
0
  6
Continuous
 62
     7
370
    25
100
AcDbPolyline
 90
       11
 70
   128
 43
0.0
 10
365.9703216463
 20
159.9331388422
 10
365.9266201059
 20
159.8999140605
 10
365.8871959438
 20
159.8539590329
 10
365.8559092845
 20
159.7997701663
 10
365.8358215696
 20
159.7426482081
 10
365.8289000034
 20
159.6881869388
 10
365.8358215696
 20
159.6417171397
 10
365.8559092845
 20
159.6077879634
 10
365.8871959438
 20
159.5897219047
 10
365.9266201059
 20
159.5892850457
 10
365.9703216463
 20
159.6065218555
  0
LINE
  5
F5
330
1F
100
AcDbEntity
  8
0
  6
Continuous
 62
     7
370
    25
100
AcDbLine
 10
365.9703216463
 20
159.6065218555
 30
0.0
 11
368.515905949
 21
161.0760563936
 31
0.0
  0
LWPOLYLINE
  5
F6
330
1F
100
AcDbEntity
  8
0
  6
Continuous
 62
     7
370
    25
100
AcDbPolyline
 90
       11
 70
   128
 43
0.0
 10
368.515905949
 20
159.3204919154
 10
368.5596074893
 20
159.3537142635
 10
368.5990311246
 20
159.399668987
 10
368.6303183108
 20
159.4538605913
 10
368.6504054988
 20
159.5109822454
 10
368.657327065
 20
159.5654410812
 10
368.6504054988
 20
159.6119108803
 10
368.6303183108
 20
159.6458403607
 10
368.5990311246
 20
159.6639085488
 10
368.5596074893
 20
159.6643457119
 10
368.515905949
 20
159.647108902
  0
LINE
  5
F7
330
1F
100
AcDbEntity
  8
0
  6
Continuous
 62
     7
370
    25
100
AcDbLine
 10
368.515905949
 20
159.647108902
 30
0.0
 11
365.9703216463
 21
158.177574364
 31
0.0
  0
LWPOLYLINE
  5
F8
330
1F
100
AcDbEntity
  8
0
  6
Continuous
 62
     7
370
    25
100
AcDbPolyline
 90
       11
 70
   128
 43
0.0
 10
365.9703216463
 20
158.177574364
 10
365.9266201059
 20
158.1443544493
 10
365.8871959438
 20
158.0983994217
 10
365.8559092845
 20
158.0442081216
 10
365.8358215696
 20
157.9870861634
 10
365.8289000034
 20
157.932624894
 10
365.8358215696
 20
157.8861575284
 10
365.8559092845
 20
157.8522283521
 10
365.8871959438
 20
157.83415986
 10
365.9266201059
 20
157.833723001
 10
365.9703216463
 20
157.8509573774
  0
LINE
  5
F9
330
1F
100
AcDbEntity
  8
0
  6
Continuous
 62
     7
370
    25
100
AcDbLine
 10
365.9703216463
 20
157.8509573774
 30
0.0
 11
368.515905949
 21
159.3204919154
 31
0.0
  0
LWPOLYLINE
  5
FA
330
1F
100
AcDbEntity
  8
0
  6
Continuous
 62
     7
370
    25
100
AcDbPolyline
 90
       11
 70
   128
 43
0.0
 10
377.5301032137
 20
169.7909657983
 10
377.5738047541
 20
169.824185713
 10
377.6132286528
 20
169.8701405885
 10
377.6445153121
 20
169.9243343221
 10
377.6646027635
 20
169.9814561283
 10
377.6715245931
 20
170.0359175496
 10
377.6646027635
 20
170.0823823297
 10
377.6445153121
 20
170.1163116581
 10
377.6132286528
 20
170.1343825837
 10
377.5738047541
 20
170.1348195948
 10
377.5301032137
 20
170.1175827849
  0
LINE
  5
FB
330
1F
100
AcDbEntity
  8
0
  6
Continuous
 62
     7
370
    25
100
AcDbLine
 10
377.5301032137
 20
170.1175827849
 30
0.0
 11
376.9997731068
 21
169.8114297308
 31
0.0
  0
LWPOLYLINE
  5
FC
330
1F
100
AcDbEntity
  8
0
  6
Continuous
 62
     7
370
    25
100
AcDbPolyline
 90
       11
 70
   128
 43
0.0
 10
376.9997731068
 20
169.8114297308
 10
376.9560715664
 20
169.7782098161
 10
376.9166476677
 20
169.7322549406
 10
376.885360745
 20
169.6780610549
 10
376.8652732935
 20
169.6209392488
 10
376.8583517273
 20
169.5664828464
 10
376.8652732935
 20
169.5200130473
 10
376.885360745
 20
169.4860837189
 10
376.9166476677
 20
169.4680129453
 10
376.9560715664
 20
169.4675759343
 10
376.9997731068
 20
169.4848127442
  0
LINE
  5
FD
330
1F
100
AcDbEntity
  8
0
  6
Continuous
 62
     7
370
    25
100
AcDbLine
 10
376.9997731068
 20
169.4848127442
 30
0.0
 11
377.5301032137
 21
169.7909657983
 31
0.0
  0
LWPOLYLINE
  5
FE
330
1F
100
AcDbEntity
  8
0
  6
Continuous
 62
     7
370
    25
100
AcDbPolyline
 90
       11
 70
   128
 43
0.0
 10
377.5301032137
 20
168.0354037535
 10
377.5738047541
 20
168.0686236682
 10
377.6132286528
 20
168.1145785438
 10
377.6445153121
 20
168.1687722774
 10
377.6646027635
 20
168.2258940835
 10
377.6715245931
 20
168.280350638
 10
377.6646027635
 20
168.326820285
 10
377.6445153121
 20
168.3607496134
 10
377.6132286528
 20
168.378820539
 10
377.5738047541
 20
168.37925755
 10
377.5301032137
 20
168.3620207402
  0
LINE
  5
FF
330
1F
100
AcDbEntity
  8
0
  6
Continuous
 62
     7
370
    25
100
AcDbLine
 10
377.5301032137
 20
168.3620207402
 30
0.0
 11
376.9997731068
 21
168.0558676861
 31
0.0
  0
LWPOLYLINE
  5
100
330
1F
100
AcDbEntity
  8
0
  6
Continuous
 62
     7
370
    25
100
AcDbPolyline
 90
       11
 70
   128
 43
0.0
 10
376.9997731068
 20
168.0558676861
 10
376.9560715664
 20
168.0226477714
 10
376.9166476677
 20
167.9766928959
 10
376.885360745
 20
167.9224990102
 10
376.8652732935
 20
167.865377204
 10
376.8583517273
 20
167.8109159347
 10
376.8652732935
 20
167.7644510026
 10
376.885360745
 20
167.7305216742
 10
376.9166476677
 20
167.7124509006
 10
376.9560715664
 20
167.7120138896
 10
376.9997731068
 20
167.7292506994
  0
LINE
  5
101
330
1F
100
AcDbEntity
  8
0
  6
Continuous
 62
     7
370
    25
100
AcDbLine
 10
376.9997731068
 20
167.7292506994
 30
0.0
 11
377.5301032137
 21
168.0354037535
 31
0.0
  0
LWPOLYLINE
  5
102
330
1F
100
AcDbEntity
  8
0
  6
Continuous
 62
     7
370
    25
100
AcDbPolyline
 90
       11
 70
   128
 43
0.0
 10
377.5301032137
 20
166.2798417088
 10
377.5738047541
 20
166.3130616235
 10
377.6132286528
 20
166.3590164991
 10
377.6445153121
 20
166.4132053657
 10
377.6646027635
 20
166.4703271719
 10
377.6715245931
 20
166.5247885932
 10
377.6646027635
 20
166.5712582403
 10
377.6445153121
 20
166.6051875687
 10
377.6132286528
 20
166.6232536273
 10
377.5738047541
 20
166.6236906384
 10
377.5301032137
 20
166.6064586955
  0
LINE
  5
103
330
1F
100
AcDbEntity
  8
0
  6
Continuous
 62
     7
370
    25
100
AcDbLine
 10
377.5301032137
 20
166.6064586955
 30
0.0
 11
376.9997731068
 21
166.3003056414
 31
0.0
  0
LWPOLYLINE
  5
104
330
1F
100
AcDbEntity
  8
0
  6
Continuous
 62
     7
370
    25
100
AcDbPolyline
 90
       11
 70
   128
 43
0.0
 10
376.9997731068
 20
166.3003056414
 10
376.9560715664
 20
166.2670808597
 10
376.9166476677
 20
166.2211259842
 10
376.885360745
 20
166.1669369655
 10
376.8652732935
 20
166.1098151593
 10
376.8583517273
 20
166.05535389
 10
376.8652732935
 20
166.0088840909
 10
376.885360745
 20
165.9749547625
 10
376.9166476677
 20
165.9568888559
 10
376.9560715664
 20
165.9564518449
 10
376.9997731068
 20
165.9736886547
  0
LINE
  5
105
330
1F
100
AcDbEntity
  8
0
  6
Continuous
 62
     7
370
    25
100
AcDbLine
 10
376.9997731068
 20
165.9736886547
 30
0.0
 11
377.5301032137
 21
166.2798417088
 31
0.0
  0
LWPOLYLINE
  5
106
330
1F
100
AcDbEntity
  8
0
  6
Continuous
 62
     7
370
    25
100
AcDbPolyline
 90
       11
 70
   128
 43
0.0
 10
377.5301032137
 20
164.5242772306
 10
377.5738047541
 20
164.5574995788
 10
377.6132286528
 20
164.6034544544
 10
377.6445153121
 20
164.6576457545
 10
377.6646027635
 20
164.7147675606
 10
377.6715245931
 20
164.7692265485
 10
377.6646027635
 20
164.8156961956
 10
377.6445153121
 20
164.8496255239
 10
377.6132286528
 20
164.8676940161
 10
377.5738047541
 20
164.8681310271
 10
377.5301032137
 20
164.8508942173
  0
LINE
  5
107
330
1F
100
AcDbEntity
  8
0
  6
Continuous
 62
     7
370
    25
100
AcDbLine
 10
377.5301032137
 20
164.8508942173
 30
0.0
 11
376.9997731068
 21
164.5447411632
 31
0.0
  0
LWPOLYLINE
  5
108
330
1F
100
AcDbEntity
  8
0
  6
Continuous
 62
     7
370
    25
100
AcDbPolyline
 90
       11
 70
   128
 43
0.0
 10
376.9997731068
 20
164.5447411632
 10
376.9560715664
 20
164.5115212485
 10
376.9166476677
 20
164.4655663729
 10
376.885360745
 20
164.4113749208
 10
376.8652732935
 20
164.3542531146
 10
376.8583517273
 20
164.2997918453
 10
376.8652732935
 20
164.2533244797
 10
376.885360745
 20
164.2193951513
 10
376.9166476677
 20
164.2013268112
 10
376.9560715664
 20
164.2008898002
 10
376.9997731068
 20
164.2181241765
  0
LINE
  5
109
330
1F
100
AcDbEntity
  8
0
  6
Continuous
 62
     7
370
    25
100
AcDbLine
 10
376.9997731068
 20
164.2181241765
 30
0.0
 11
377.5301032137
 21
164.5242772306
 31
0.0
  0
LWPOLYLINE
  5
10A
330
1F
100
AcDbEntity
  8
0
  6
Continuous
 62
     7
370
    25
100
AcDbPolyline
 90
       11
 70
   128
 43
0.0
 10
378.4139866375
 20
170.6278378244
 10
378.3702850971
 20
170.5946179097
 10
378.3308611985
 20
170.5486630341
 10
378.2995742757
 20
170.4944691485
 10
378.2794868243
 20
170.4373473423
 10
378.2725652581
 20
170.38289094
 10
378.2794868243
 20
170.3364211409
 10
378.2995742757
 20
170.3024918125
 10
378.3308611985
 20
170.2844210389
 10
378.3702850971
 20
170.2839840279
 10
378.4139866375
 20
170.3012208377
  0
LINE
  5
10B
330
1F
100
AcDbEntity
  8
0
  6
Continuous
 62
     7
370
    25
100
AcDbLine
 10
378.4139866375
 20
170.3012208377
 30
0.0
 11
380.9595712036
 21
171.7707555278
 31
0.0
  0
LWPOLYLINE
  5
10C
330
1F
100
AcDbEntity
  8
0
  6
Continuous
 62
     7
370
    25
100
AcDbPolyline
 90
       11
 70
   128
 43
0.0
 10
380.9595712036
 20
171.7707555278
 10
381.003272744
 20
171.8039754425
 10
381.0426963793
 20
171.849930166
 10
381.0739835654
 20
171.9041242038
 10
381.0940707534
 20
171.9612458578
 10
381.1009923196
 20
172.0157071271
 10
381.0940707534
 20
172.0621720593
 10
381.0739835654
 20
172.0961015397
 10
381.0426963793
 20
172.1141721612
 10
381.003272744
 20
172.1146093243
 10
380.9595712036
 20
172.0973725145
  0
LINE
  5
10D
330
1F
100
AcDbEntity
  8
0
  6
Continuous
 62
     7
370
    25
100
AcDbLine
 10
380.9595712036
 20
172.0973725145
 30
0.0
 11
378.4139866375
 21
170.6278378244
 31
0.0
  0
LWPOLYLINE
  5
10E
330
1F
100
AcDbEntity
  8
0
  6
Continuous
 62
     7
370
    25
100
AcDbPolyline
 90
       11
 70
   128
 43
0.0
 10
378.4139866375
 20
168.8722757797
 10
378.3702850971
 20
168.839055865
 10
378.3308611985
 20
168.7931009894
 10
378.2995742757
 20
168.7389071038
 10
378.2794868243
 20
168.6817852976
 10
378.2725652581
 20
168.6273240283
 10
378.2794868243
 20
168.5808590962
 10
378.2995742757
 20
168.5469297678
 10
378.3308611985
 20
168.5288589942
 10
378.3702850971
 20
168.5284219832
 10
378.4139866375
 20
168.545658793
  0
LINE
  5
10F
330
1F
100
AcDbEntity
  8
0
  6
Continuous
 62
     7
370
    25
100
AcDbLine
 10
378.4139866375
 20
168.545658793
 30
0.0
 11
380.9595712036
 21
170.0151934831
 31
0.0
  0
LWPOLYLINE
  5
110
330
1F
100
AcDbEntity
  8
0
  6
Continuous
 62
     7
370
    25
100
AcDbPolyline
 90
       11
 70
   128
 43
0.0
 10
380.9595712036
 20
170.0151934831
 10
381.003272744
 20
170.0484133978
 10
381.0426963793
 20
170.0943681213
 10
381.0739835654
 20
170.148562159
 10
381.0940707534
 20
170.2056838131
 10
381.1009923196
 20
170.2601402155
 10
381.0940707534
 20
170.3066100145
 10
381.0739835654
 20
170.340539495
 10
381.0426963793
 20
170.3586101165
 10
381.003272744
 20
170.3590472796
 10
380.9595712036
 20
170.3418104698
  0
LINE
  5
111
330
1F
100
AcDbEntity
  8
0
  6
Continuous
 62
     7
370
    25
100
AcDbLine
 10
380.9595712036
 20
170.3418104698
 30
0.0
 11
378.4139866375
 21
168.8722757797
 31
0.0
  0
LWPOLYLINE
  5
112
330
1F
100
AcDbEntity
  8
0
  6
Continuous
 62
     7
370
    25
100
AcDbPolyline
 90
       11
 70
   128
 43
0.0
 10
378.4139866375
 20
167.116713735
 10
378.3702850971
 20
167.0834889533
 10
378.3308611985
 20
167.0375340778
 10
378.2995742757
 20
166.983345059
 10
378.2794868243
 20
166.9262232529
 10
378.2725652581
 20
166.8717619836
 10
378.2794868243
 20
166.8252921845
 10
378.2995742757
 20
166.7913628561
 10
378.3308611985
 20
166.7732969495
 10
378.3702850971
 20
166.7728599385
 10
378.4139866375
 20
166.7900967483
  0
LINE
  5
113
330
1F
100
AcDbEntity
  8
0
  6
Continuous
 62
     7
370
    25
100
AcDbLine
 10
378.4139866375
 20
166.7900967483
 30
0.0
 11
380.9595712036
 21
168.2596314384
 31
0.0
  0
LWPOLYLINE
  5
114
330
1F
100
AcDbEntity
  8
0
  6
Continuous
 62
     7
370
    25
100
AcDbPolyline
 90
       11
 70
   128
 43
0.0
 10
380.9595712036
 20
168.2596314384
 10
381.003272744
 20
168.2928513531
 10
381.0426963793
 20
168.3388060766
 10
381.0739835654
 20
168.3929952474
 10
381.0940707534
 20
168.4501169014
 10
381.1009923196
 20
168.5045781707
 10
381.0940707534
 20
168.5510479698
 10
381.0739835654
 20
168.5849774503
 10
381.0426963793
 20
168.6030432048
 10
381.003272744
 20
168.6034803679
 10
380.9595712036
 20
168.5862484251
  0
LINE
  5
115
330
1F
100
AcDbEntity
  8
0
  6
Continuous
 62
     7
370
    25
100
AcDbLine
 10
380.9595712036
 20
168.5862484251
 30
0.0
 11
378.4139866375
 21
167.116713735
 31
0.0
  0
LWPOLYLINE
  5
116
330
1F
100
AcDbEntity
  8
0
  6
Continuous
 62
     7
370
    25
100
AcDbPolyline
 90
       11
 70
   128
 43
0.0
 10
378.4139866375
 20
165.3611492568
 10
378.3702850971
 20
165.3279293421
 10
378.3308611985
 20
165.2819744665
 10
378.2995742757
 20
165.2277830143
 10
378.2794868243
 20
165.1706612082
 10
378.2725652581
 20
165.1161999389
 10
378.2794868243
 20
165.0697325733
 10
378.2995742757
 20
165.0358032449
 10
378.3308611985
 20
165.0177349048
 10
378.3702850971
 20
165.0172978938
 10
378.4139866375
 20
165.0345322701
  0
LINE
  5
117
330
1F
100
AcDbEntity
  8
0
  6
Continuous
 62
     7
370
    25
100
AcDbLine
 10
378.4139866375
 20
165.0345322701
 30
0.0
 11
380.9595712036
 21
166.5040669602
 31
0.0
  0
LWPOLYLINE
  5
118
330
1F
100
AcDbEntity
  8
0
  6
Continuous
 62
     7
370
    25
100
AcDbPolyline
 90
       11
 70
   128
 43
0.0
 10
380.9595712036
 20
166.5040669602
 10
381.003272744
 20
166.5372893084
 10
381.0426963793
 20
166.5832440319
 10
381.0739835654
 20
166.6374356361
 10
381.0940707534
 20
166.6945572902
 10
381.1009923196
 20
166.749016126
 10
381.0940707534
 20
166.7954859251
 10
381.0739835654
 20
166.8294154056
 10
381.0426963793
 20
166.8474835936
 10
381.003272744
 20
166.8479207567
 10
380.9595712036
 20
166.8306839469
  0
LINE
  5
119
330
1F
100
AcDbEntity
  8
0
  6
Continuous
 62
     7
370
    25
100
AcDbLine
 10
380.9595712036
 20
166.8306839469
 30
0.0
 11
378.4139866375
 21
165.3611492568
 31
0.0
  0
LINE
  5
11A
330
1F
100
AcDbEntity
  8
0
  6
Continuous
 62
     7
370
    25
100
AcDbLine
 10
332.9477284657
 20
181.4866261177
 30
0.0
 11
332.9477284657
 21
181.3437564334
 31
0.0
  0
LINE
  5
11B
330
1F
100
AcDbEntity
  8
0
  6
Continuous
 62
     7
370
    25
100
AcDbLine
 10
364.1488149326
 20
155.5133496727
 30
0.0
 11
364.2725580799
 21
155.4419142744
 31
0.0
  0
LINE
  5
11C
330
1F
100
AcDbEntity
  8
0
  6
Continuous
 62
     7
370
    25
100
AcDbLine
 10
365.3685742313
 20
78.1480499162
 30
0.0
 11
365.6160615795
 21
78.2909213212
 31
0.0
  0
LINE
  5
11D
330
1F
100
AcDbEntity
  8
0
  6
Continuous
 62
     7
370
    25
100
AcDbLine
 10
365.3685742313
 20
78.1480499162
 30
0.0
 11
365.3685742313
 21
82.1899357345
 31
0.0
  0
LINE
  5
11E
330
1F
100
AcDbEntity
  8
0
  6
Continuous
 62
     7
370
    25
100
AcDbLine
 10
365.6160615795
 20
78.2909213212
 30
0.0
 11
365.6160615795
 21
82.3328071395
 31
0.0
  0
LINE
  5
11F
330
1F
100
AcDbEntity
  8
0
  6
Continuous
 62
     7
370
    25
100
AcDbLine
 10
362.3911849289
 20
79.8668601746
 30
0.0
 11
365.3685742313
 21
78.1480499162
 31
0.0
  0
LINE
  5
120
330
1F
100
AcDbEntity
  8
0
  6
Continuous
 62
     7
370
    25
100
AcDbLine
 10
364.4846905441
 20
155.0949078611
 30
0.0
 11
364.3432689013
 21
155.1765488378
 31
0.0
  0
LINE
  5
121
330
1F
100
AcDbEntity
  8
0
  6
Continuous
 62
     7
370
    25
100
AcDbLine
 10
363.7847989241
 20
154.6908690291
 30
0.0
 11
364.4846905441
 21
155.0949078611
 31
0.0
  0
LINE
  5
122
330
1F
100
AcDbEntity
  8
0
  6
Continuous
 62
     7
370
    25
100
AcDbLine
 10
363.7176242232
 20
154.7296481584
 30
0.0
 11
363.7847989241
 21
154.6908690291
 31
0.0
  0
ARC
  5
123
330
1F
100
AcDbEntity
  8
0
  6
Continuous
 62
     7
370
    25
100
AcDbCircle
 10
363.7105530357
 20
154.7159996414
 30
0.0
 40
0.0153715227397581
100
AcDbArc
 50
62.6116874885
 51
117.3883125117
  0
LINE
  5
124
330
1F
100
AcDbEntity
  8
0
  6
Continuous
 62
     7
370
    25
100
AcDbLine
 10
363.698874144
 20
154.7269881874
 30
0.0
 11
363.7034818482
 21
154.7296481584
 31
0.0
  0
ARC
  5
125
330
1F
100
AcDbEntity
  8
0
  6
Continuous
 62
     7
370
    25
100
AcDbCircle
 10
363.6918485667
 20
154.7403433059
 30
0.0
 40
0.0150903256092014
100
AcDbArc
 50
238.8781790204
 51
297.7470080743
  0
ARC
  5
126
330
1F
100
AcDbEntity
  8
0
  6
Continuous
 62
     7
370
    25
100
AcDbCircle
 10
363.6932083597
 20
154.7453321688
 30
0.0
 40
0.0201137611232385
100
AcDbArc
 50
134.0723523161
 51
242.91072486
  0
ARC
  5
127
330
1F
100
AcDbEntity
  8
0
  6
Continuous
 62
     7
370
    25
100
AcDbCircle
 10
363.7013286804
 20
154.7313781989
 30
0.0
 40
0.0359962093080009
100
AcDbArc
 50
68.0182063981
 51
127.8976484651
  0
ARC
  5
128
330
1F
100
AcDbEntity
  8
0
  6
Continuous
 62
     7
370
    25
100
AcDbCircle
 10
363.7420914652
 20
154.8381474298
 30
0.0
 40
0.0782991520785443
100
AcDbArc
 50
249.6030621662
 51
297.0732811111
  0
LINE
  5
129
330
1F
100
AcDbEntity
  8
0
  6
Continuous
 62
     7
370
    25
100
AcDbLine
 10
364.3079161248
 20
155.0744991376
 30
0.0
 11
363.7777277366
 21
154.7684278961
 31
0.0
  0
ARC
  5
12A
330
1F
100
AcDbEntity
  8
0
  6
Continuous
 62
     7
370
    25
100
AcDbCircle
 10
364.2998757239
 20
155.0947980453
 30
0.0
 40
0.0218333162145844
100
AcDbArc
 50
291.6085271978
 51
70.0241812889
  0
LINE
  5
12B
330
1F
100
AcDbEntity
  8
0
  6
Continuous
 62
     7
370
    25
100
AcDbLine
 10
363.8833308802
 20
155.3600898797
 30
0.0
 11
364.3073344982
 21
155.1153178012
 31
0.0
  0
LINE
  5
12C
330
1F
100
AcDbEntity
  8
0
  6
Continuous
 62
     7
370
    25
100
AcDbLine
 10
364.0003284243
 20
155.333704281
 30
0.0
 11
363.9189765773
 21
155.3806677027
 31
0.0
  0
LINE
  5
12D
330
1F
100
AcDbEntity
  8
0
  6
Continuous
 62
     7
370
    25
100
AcDbLine
 10
363.9932677735
 20
155.3296282541
 30
0.0
 11
364.0003284243
 21
155.333704281
 31
0.0
  0
LINE
  5
12E
330
1F
100
AcDbEntity
  8
0
  6
Continuous
 62
     7
370
    25
100
AcDbLine
 10
364.0356885765
 20
155.3051392458
 30
0.0
 11
363.9932677735
 21
155.3296282541
 31
0.0
  0
LINE
  5
12F
330
1F
100
AcDbEntity
  8
0
  6
Continuous
 62
     7
370
    25
100
AcDbLine
 10
364.0957815532
 20
155.3398301828
 30
0.0
 11
364.0356885765
 21
155.3051392458
 31
0.0
  0
LINE
  5
130
330
1F
100
AcDbEntity
  8
0
  6
Continuous
 62
     7
370
    25
100
AcDbLine
 10
364.1311374907
 20
155.3194196345
 30
0.0
 11
364.0957815532
 21
155.3398301828
 31
0.0
  0
LINE
  5
131
330
1F
100
AcDbEntity
  8
0
  6
Continuous
 62
     7
370
    25
100
AcDbLine
 10
364.1134600488
 20
155.3092146644
 30
0.0
 11
364.1311374907
 21
155.3194196345
 31
0.0
  0
LWPOLYLINE
  5
132
330
1F
100
AcDbEntity
  8
0
  6
Continuous
 62
     7
370
    25
100
AcDbPolyline
 90
        9
 70
   128
 43
0.0
 10
364.120240423
 20
155.2723090111
 10
364.1145147736
 20
155.2761034084
 10
364.1100166512
 20
155.2804142281
 10
364.1068851404
 20
155.2851100837
 10
364.1052140179
 20
155.2900492478
 10
364.1050538598
 20
155.2950808692
 10
364.106408881
 20
155.3000516634
 10
364.1092400956
 20
155.3048113875
 10
364.1134600488
 20
155.3092146644
  0
LINE
  5
133
330
1F
100
AcDbEntity
  8
0
  6
Continuous
 62
     7
370
    25
100
AcDbLine
 10
364.1909512444
 20
155.2314885228
 30
0.0
 11
364.120240423
 21
155.2723090111
 31
0.0
  0
ARC
  5
134
330
1F
100
AcDbEntity
  8
0
  6
Continuous
 62
     7
370
    25
100
AcDbCircle
 10
364.2272581972
 20
155.300451623
 30
0.0
 40
0.0779365383323747
100
AcDbArc
 50
242.234573723
 51
290.7580375462
  0
LINE
  5
135
330
1F
100
AcDbEntity
  8
0
  6
Continuous
 62
     7
370
    25
100
AcDbLine
 10
365.3332182938
 20
155.8500853743
 30
0.0
 11
364.2548806379
 21
155.2275742961
 31
0.0
  0
LINE
  5
136
330
1F
100
AcDbEntity
  8
0
  6
Continuous
 62
     7
370
    25
100
AcDbLine
 10
365.3862516733
 20
155.819469856
 30
0.0
 11
365.3332182938
 21
155.8500853743
 31
0.0
  0
LINE
  5
137
330
1F
100
AcDbEntity
  8
0
  6
Continuous
 62
     7
370
    25
100
AcDbLine
 10
364.3432689013
 20
155.2173687178
 30
0.0
 11
365.3862516733
 21
155.819469856
 31
0.0
  0
ARC
  5
138
330
1F
100
AcDbEntity
  8
0
  6
Continuous
 62
     7
370
    25
100
AcDbCircle
 10
364.3510156404
 20
155.1969587778
 30
0.0
 40
0.0218306577800564
100
AcDbArc
 50
110.7846171049
 51
249.2153828952
  0
LINE
  5
139
330
1F
100
AcDbEntity
  8
0
  6
Continuous
 62
     7
370
    25
100
AcDbLine
 10
363.7847989241
 20
81.2144431838
 30
0.0
 11
363.7847989241
 21
154.6908690291
 31
0.0
  0
LINE
  5
13A
330
1F
100
AcDbEntity
  8
0
  6
Continuous
 62
     7
370
    25
100
AcDbLine
 10
363.7176242232
 20
81.2532223132
 30
0.0
 11
363.7847989241
 21
81.2144431838
 31
0.0
  0
LINE
  5
13B
330
1F
100
AcDbEntity
  8
0
  6
Continuous
 62
     7
370
    25
100
AcDbLine
 10
363.7176242232
 20
81.2532223132
 30
0.0
 11
363.7176242232
 21
154.7296481584
 31
0.0
  0
LINE
  5
13C
330
1F
100
AcDbEntity
  8
0
  6
Continuous
 62
     7
370
    25
100
AcDbLine
 10
364.4846905441
 20
81.6184820159
 30
0.0
 11
364.4846905441
 21
155.0949078611
 31
0.0
  0
LINE
  5
13D
330
1F
100
AcDbEntity
  8
0
  6
Continuous
 62
     7
370
    25
100
AcDbLine
 10
363.7847989241
 20
81.2144431838
 30
0.0
 11
364.4846905441
 21
81.6184820159
 31
0.0
  0
LINE
  5
13E
330
1F
100
AcDbEntity
  8
0
  6
Continuous
 62
     7
370
    25
100
AcDbLine
 10
363.698874144
 20
81.2505623421
 30
0.0
 11
363.698874144
 21
154.7269881874
 31
0.0
  0
ARC
  5
13F
330
1F
100
AcDbEntity
  8
0
  6
Continuous
 62
     7
370
    25
100
AcDbCircle
 10
363.6918485667
 20
81.2639174606
 30
0.0
 40
0.0150903256092744
100
AcDbArc
 50
238.8781790205
 51
297.7470080742
  0
LINE
  5
140
330
1F
100
AcDbEntity
  8
0
  6
Continuous
 62
     7
370
    25
100
AcDbLine
 10
363.6840489901
 20
81.250999081
 30
0.0
 11
363.6840489901
 21
154.7274249263
 31
0.0
  0
ARC
  5
141
330
1F
100
AcDbEntity
  8
0
  6
Continuous
 62
     7
370
    25
100
AcDbCircle
 10
363.7105530357
 20
81.2395737961
 30
0.0
 40
0.0153715227394931
100
AcDbArc
 50
62.611687488
 51
117.3883125122
  0
LINE
  5
142
330
1F
100
AcDbEntity
  8
0
  6
Continuous
 62
     7
370
    25
100
AcDbLine
 10
363.7034818482
 20
81.2532223132
 30
0.0
 11
363.7034818482
 21
154.7296481584
 31
0.0
  0
LINE
  5
143
330
1F
100
AcDbEntity
  8
0
  6
Continuous
 62
     7
370
    25
100
AcDbLine
 10
363.698874144
 20
81.2505623421
 30
0.0
 11
363.7034818482
 21
81.2532223132
 31
0.0
  0
ARC
  5
144
330
1F
100
AcDbEntity
  8
0
  6
Continuous
 62
     7
370
    25
100
AcDbCircle
 10
363.6959916424
 20
81.2709314581
 30
0.0
 40
0.0232363207250175
100
AcDbArc
 50
184.2062316907
 51
239.0717100212
  0
LINE
  5
145
330
1F
100
AcDbEntity
  8
0
  6
Continuous
 62
     7
370
    25
100
AcDbLine
 10
363.6757344705
 20
155.0516327353
 30
0.0
 11
363.6757344705
 21
155.2402445667
 31
0.0
  0
LINE
  5
146
330
1F
100
AcDbEntity
  8
0
  6
Continuous
 62
     7
370
    25
100
AcDbLine
 10
365.3862516733
 20
82.3430440107
 30
0.0
 11
365.3862516733
 21
155.819469856
 31
0.0
  0
LINE
  5
147
330
1F
100
AcDbEntity
  8
0
  6
Continuous
 62
     7
370
    25
100
AcDbLine
 10
364.4846905441
 20
81.8225838492
 30
0.0
 11
365.3862516733
 21
82.3430440107
 31
0.0
  0
LINE
  5
148
330
1F
100
AcDbEntity
  8
0
  6
Continuous
 62
     7
370
    25
100
AcDbLine
 10
364.1134600488
 20
155.2769734713
 30
0.0
 11
364.1134600488
 21
155.3092146644
 31
0.0
  0
LINE
  5
149
330
1F
100
AcDbEntity
  8
0
  6
Continuous
 62
     7
370
    25
100
AcDbLine
 10
364.1311374907
 20
155.2660168884
 30
0.0
 11
364.1311374907
 21
155.3194196345
 31
0.0
  0
LINE
  5
14A
330
1F
100
AcDbEntity
  8
0
  6
Continuous
 62
     7
370
    25
100
AcDbLine
 10
364.0003284243
 20
155.3255521188
 30
0.0
 11
364.0003284243
 21
155.333704281
 31
0.0
  0
LINE
  5
14B
330
1F
100
AcDbEntity
  8
0
  6
Continuous
 62
     7
370
    25
100
AcDbLine
 10
364.2725580799
 20
155.4419142744
 30
0.0
 11
364.2725580799
 21
155.2377792661
 31
0.0
  0
LINE
  5
14C
330
1F
100
AcDbEntity
  8
0
  6
Continuous
 62
     7
370
    25
100
AcDbLine
 10
384.0715480374
 20
166.8716278886
 30
0.0
 11
364.2725580799
 21
155.4419142744
 31
0.0
  0
LINE
  5
14D
330
1F
100
AcDbEntity
  8
0
  6
Continuous
 62
     7
370
    25
100
AcDbLine
 10
384.0715480374
 20
92.9869320267
 30
0.0
 11
384.0715480374
 21
166.8716278886
 31
0.0
  0
LINE
  5
14E
330
1F
100
AcDbEntity
  8
0
  6
Continuous
 62
     7
370
    25
100
AcDbLine
 10
384.0715480374
 20
92.9869320267
 30
0.0
 11
364.4846905441
 21
81.6796798775
 31
0.0
  0
LINE
  5
14F
330
1F
100
AcDbEntity
  8
0
  6
Continuous
 62
     7
370
    25
100
AcDbLine
 10
384.0715480374
 20
166.8716278886
 30
0.0
 11
382.65733477
 21
167.6880358301
 31
0.0
  0
LINE
  5
150
330
1F
100
AcDbEntity
  8
0
  6
Continuous
 62
     7
370
    25
100
AcDbLine
 10
365.6797006865
 20
82.3695444382
 30
0.0
 11
365.686771874
 21
82.3654623286
 31
0.0
  0
LINE
  5
151
330
1F
100
AcDbEntity
  8
0
  6
Continuous
 62
     7
370
    25
100
AcDbLine
 10
365.686771874
 20
78.9849821136
 30
0.0
 11
365.686771874
 21
82.3654623286
 31
0.0
  0
LINE
  5
152
330
1F
100
AcDbEntity
  8
0
  6
Continuous
 62
     7
370
    25
100
AcDbLine
 10
365.6160621063
 20
79.0258019937
 30
0.0
 11
365.686771874
 21
78.9849821136
 31
0.0
  0
LINE
  5
153
330
1F
100
AcDbEntity
  8
0
  6
Continuous
 62
     7
370
    25
100
AcDbLine
 10
381.6108164043
 20
91.5582175626
 30
0.0
 11
381.6108164043
 21
87.8429560314
 31
0.0
  0
LINE
  5
154
330
1F
100
AcDbEntity
  8
0
  6
Continuous
 62
     7
370
    25
100
AcDbLine
 10
381.6108164043
 20
87.8429560314
 30
0.0
 11
378.0752824457
 21
85.8019357214
 31
0.0
  0
LINE
  5
155
330
1F
100
AcDbEntity
  8
0
  6
Continuous
 62
     7
370
    25
100
AcDbLine
 10
378.0752824457
 20
85.8019357214
 30
0.0
 11
378.0752824457
 21
85.5651385278
 31
0.0
  0
LINE
  5
156
330
1F
100
AcDbEntity
  8
0
  6
Continuous
 62
     7
370
    25
100
AcDbLine
 10
366.9913838423
 20
79.1665400621
 30
0.0
 11
378.0752824457
 21
85.5651385278
 31
0.0
  0
LINE
  5
157
330
1F
100
AcDbEntity
  8
0
  6
Continuous
 62
     7
370
    25
100
AcDbLine
 10
366.9913838423
 20
79.1665400621
 30
0.0
 11
366.4964091461
 21
79.452375762
 31
0.0
  0
LINE
  5
158
330
1F
100
AcDbEntity
  8
0
  6
Continuous
 62
     7
370
    25
100
AcDbLine
 10
366.4964091461
 20
79.452375762
 30
0.0
 11
365.686771874
 21
78.9849821136
 31
0.0
  0
LINE
  5
159
330
1F
100
AcDbEntity
  8
0
  6
Continuous
 62
     7
370
    25
100
AcDbLine
 10
381.6108164043
 20
91.5582175626
 30
0.0
 11
365.686771874
 21
82.3654623286
 31
0.0
  0
LINE
  5
15A
330
1F
100
AcDbEntity
  8
0
  6
Continuous
 62
     7
370
    25
100
AcDbLine
 10
368.868751989
 20
82.1202013177
 30
0.0
 11
371.4143365551
 21
83.5897360077
 31
0.0
  0
LWPOLYLINE
  5
15B
330
1F
100
AcDbEntity
  8
0
  6
Continuous
 62
     7
370
    25
100
AcDbPolyline
 90
       11
 70
   128
 43
0.0
 10
371.4143365551
 20
83.5897360077
 10
371.4580380955
 20
83.6229559224
 10
371.4974619942
 20
83.668910798
 10
371.5287489169
 20
83.7231022502
 10
371.5488363683
 20
83.7802240563
 10
371.5557579345
 20
83.8346828922
 10
371.5488363683
 20
83.8811526912
 10
371.5287489169
 20
83.9150820196
 10
371.4974619942
 20
83.9331503597
 10
371.4580380955
 20
83.9335873708
 10
371.4143365551
 20
83.9163505609
  0
LINE
  5
15C
330
1F
100
AcDbEntity
  8
0
  6
Continuous
 62
     7
370
    25
100
AcDbLine
 10
371.4143365551
 20
83.9163505609
 30
0.0
 11
368.868751989
 21
82.4468158708
 31
0.0
  0
LWPOLYLINE
  5
15D
330
1F
100
AcDbEntity
  8
0
  6
Continuous
 62
     7
370
    25
100
AcDbPolyline
 90
       11
 70
   128
 43
0.0
 10
368.868751989
 20
82.4468158708
 10
368.8250504486
 20
82.4135959561
 10
368.7856268133
 20
82.3676412326
 10
368.754340154
 20
82.3134499325
 10
368.7342524392
 20
82.2563279743
 10
368.727330873
 20
82.201866705
 10
368.7342524392
 20
82.1553993394
 10
368.754340154
 20
82.1214701631
 10
368.7856268133
 20
82.1034016709
 10
368.8250504486
 20
82.1029645078
 10
368.868751989
 20
82.1202013177
  0
LINE
  5
15E
330
1F
100
AcDbEntity
  8
0
  6
Continuous
 62
     7
370
    25
100
AcDbLine
 10
372.7578395279
 20
84.3653237651
 30
0.0
 11
375.3034239623
 21
85.8348583791
 31
0.0
  0
LWPOLYLINE
  5
15F
330
1F
100
AcDbEntity
  8
0
  6
Continuous
 62
     7
370
    25
100
AcDbPolyline
 90
       11
 70
   128
 43
0.0
 10
375.3034239623
 20
85.8348583791
 10
375.3471255026
 20
85.8680782938
 10
375.3865492696
 20
85.9140330934
 10
375.4178361924
 20
85.9682245455
 10
375.4379236438
 20
86.0253463517
 10
375.44484521
 20
86.0798051875
 10
375.4379236438
 20
86.1262749866
 10
375.4178361924
 20
86.160204315
 10
375.3865492696
 20
86.1782726551
 10
375.3471255026
 20
86.1787097421
 10
375.3034239623
 20
86.1614729323
  0
LINE
  5
160
330
1F
100
AcDbEntity
  8
0
  6
Continuous
 62
     7
370
    25
100
AcDbLine
 10
375.3034239623
 20
86.1614729323
 30
0.0
 11
372.7578395279
 21
84.6919383183
 31
0.0
  0
LWPOLYLINE
  5
161
330
1F
100
AcDbEntity
  8
0
  6
Continuous
 62
     7
370
    25
100
AcDbPolyline
 90
       11
 70
   128
 43
0.0
 10
372.7578395279
 20
84.6919383183
 10
372.7141378558
 20
84.6587183275
 10
372.6747140888
 20
84.612763528
 10
372.6434271661
 20
84.5585720758
 10
372.6233398463
 20
84.5014503457
 10
372.6164181484
 20
84.4469890004
 10
372.6233398463
 20
84.4005217108
 10
372.6434271661
 20
84.3665923064
 10
372.6747140888
 20
84.3485239663
 10
372.7141378558
 20
84.3480868792
 10
372.7578395279
 20
84.3653237651
  0
LINE
  5
162
330
1F
100
AcDbEntity
  8
0
  6
Continuous
 62
     7
370
    25
100
AcDbLine
 10
376.6469268033
 20
86.6104460604
 30
0.0
 11
379.1925113694
 21
88.0799807505
 31
0.0
  0
LWPOLYLINE
  5
163
330
1F
100
AcDbEntity
  8
0
  6
Continuous
 62
     7
370
    25
100
AcDbPolyline
 90
       11
 70
   128
 43
0.0
 10
379.1925113694
 20
88.0799807505
 10
379.2362129098
 20
88.1132006652
 10
379.2756365451
 20
88.1591553887
 10
379.3069237312
 20
88.213346993
 10
379.3270109192
 20
88.270468647
 10
379.3339324854
 20
88.3249274829
 10
379.3270109192
 20
88.3713972819
 10
379.3069237312
 20
88.4053267624
 10
379.2756365451
 20
88.4233949504
 10
379.2362129098
 20
88.4238321135
 10
379.1925113694
 20
88.4065953037
  0
LINE
  5
164
330
1F
100
AcDbEntity
  8
0
  6
Continuous
 62
     7
370
    25
100
AcDbLine
 10
379.1925113694
 20
88.4065953037
 30
0.0
 11
376.6469268033
 21
86.9370606136
 31
0.0
  0
LWPOLYLINE
  5
165
330
1F
100
AcDbEntity
  8
0
  6
Continuous
 62
     7
370
    25
100
AcDbPolyline
 90
       11
 70
   128
 43
0.0
 10
376.6469268033
 20
86.9370606136
 10
376.6032252629
 20
86.9038406989
 10
376.5638013642
 20
86.8578858233
 10
376.5325144415
 20
86.8036943712
 10
376.5124269901
 20
86.746572565
 10
376.5055054239
 20
86.6921112957
 10
376.5124269901
 20
86.6456439301
 10
376.5325144415
 20
86.6117146017
 10
376.5638013642
 20
86.5936462616
 10
376.6032252629
 20
86.5932092506
 10
376.6469268033
 20
86.6104460604
  0
LINE
  5
166
330
1F
100
AcDbEntity
  8
0
  6
Continuous
 62
     7
370
    25
100
AcDbLine
 10
366.9242086147
 20
81.8141803552
 30
0.0
 11
369.4697929174
 21
83.2837148932
 31
0.0
  0
LWPOLYLINE
  5
167
330
1F
100
AcDbEntity
  8
0
  6
Continuous
 62
     7
370
    25
100
AcDbPolyline
 90
       11
 70
   128
 43
0.0
 10
369.4697929174
 20
83.2837148932
 10
369.5134944578
 20
83.3169348079
 10
369.552918093
 20
83.3628919649
 10
369.5842052792
 20
83.4170811357
 10
369.6042924672
 20
83.4742027898
 10
369.6112145602
 20
83.5286643632
 10
369.6042924672
 20
83.5751338582
 10
369.5842052792
 20
83.6090609051
 10
369.552918093
 20
83.6271290932
 10
369.5134944578
 20
83.6275662563
 10
369.4697929174
 20
83.6103318799
  0
LINE
  5
168
330
1F
100
AcDbEntity
  8
0
  6
Continuous
 62
     7
370
    25
100
AcDbLine
 10
369.4697929174
 20
83.6103318799
 30
0.0
 11
366.9242086147
 21
82.1407973419
 31
0.0
  0
LWPOLYLINE
  5
169
330
1F
100
AcDbEntity
  8
0
  6
Continuous
 62
     7
370
    25
100
AcDbPolyline
 90
       11
 70
   128
 43
0.0
 10
366.9242086147
 20
82.1407973419
 10
366.8805070743
 20
82.1075749937
 10
366.8410829122
 20
82.0616199661
 10
366.8097962529
 20
82.007428666
 10
366.7897090649
 20
81.9503094454
 10
366.7827869718
 20
81.8958478719
 10
366.7897090649
 20
81.849378377
 10
366.8097962529
 20
81.8154488965
 10
366.8410829122
 20
81.7973828378
 10
366.8805070743
 20
81.7969435454
 10
366.9242086147
 20
81.8141803552
  0
LINE
  5
16A
330
1F
100
AcDbEntity
  8
0
  6
Continuous
 62
     7
370
    25
100
AcDbLine
 10
370.8132958901
 20
84.0593026506
 30
0.0
 11
373.3588802587
 21
85.5288372266
 31
0.0
  0
LWPOLYLINE
  5
16B
330
1F
100
AcDbEntity
  8
0
  6
Continuous
 62
     7
370
    25
100
AcDbPolyline
 90
       11
 70
   128
 43
0.0
 10
373.3588802587
 20
85.5288372266
 10
373.4025818649
 20
85.5620571793
 10
373.4420056319
 20
85.6080144123
 10
373.4732925546
 20
85.662203431
 10
373.4933799402
 20
85.7193251992
 10
373.5003016381
 20
85.7737865445
 10
373.4933799402
 20
85.8202562676
 10
373.4732925546
 20
85.8541832005
 10
373.4420056319
 20
85.8722515406
 10
373.4025818649
 20
85.8726886276
 10
373.3588802587
 20
85.8554542133
  0
LINE
  5
16C
330
1F
100
AcDbEntity
  8
0
  6
Continuous
 62
     7
370
    25
100
AcDbLine
 10
373.3588802587
 20
85.8554542133
 30
0.0
 11
370.8132958901
 21
84.3859196372
 31
0.0
  0
LWPOLYLINE
  5
16D
330
1F
100
AcDbEntity
  8
0
  6
Continuous
 62
     7
370
    25
100
AcDbPolyline
 90
       11
 70
   128
 43
0.0
 10
370.8132958901
 20
84.3859196372
 10
370.7695943497
 20
84.3526972891
 10
370.7301704511
 20
84.3067424135
 10
370.6988835283
 20
84.2525509613
 10
370.6787960769
 20
84.1954315887
 10
370.6718745107
 20
84.1409703193
 10
370.6787960769
 20
84.0945005203
 10
370.6988835283
 20
84.0605711919
 10
370.7301704511
 20
84.0425052852
 10
370.7695943497
 20
84.0420658407
 10
370.8132958901
 20
84.0593026506
  0
LINE
  5
16E
330
1F
100
AcDbEntity
  8
0
  6
Continuous
 62
     7
370
    25
100
AcDbLine
 10
374.7023831327
 20
86.3044249269
 30
0.0
 11
377.2479674683
 21
87.7739594839
 31
0.0
  0
LWPOLYLINE
  5
16F
330
1F
100
AcDbEntity
  8
0
  6
Continuous
 62
     7
370
    25
100
AcDbPolyline
 90
       11
 70
   128
 43
0.0
 10
377.2479674683
 20
87.7739594839
 10
377.2916692721
 20
87.8071795507
 10
377.3310929073
 20
87.8531367077
 10
377.3623798301
 20
87.9073257264
 10
377.3824672815
 20
87.9644475325
 10
377.3893888477
 20
88.0189088018
 10
377.3824672815
 20
88.0653786009
 10
377.3623798301
 20
88.0993054958
 10
377.3310929073
 20
88.1173738359
 10
377.2916692721
 20
88.117810999
 10
377.2479674683
 20
88.1005764706
  0
LINE
  5
170
330
1F
100
AcDbEntity
  8
0
  6
Continuous
 62
     7
370
    25
100
AcDbLine
 10
377.2479674683
 20
88.1005764706
 30
0.0
 11
374.7023831327
 21
86.6310419136
 31
0.0
  0
LWPOLYLINE
  5
171
330
1F
100
AcDbEntity
  8
0
  6
Continuous
 62
     7
370
    25
100
AcDbPolyline
 90
       11
 70
   128
 43
0.0
 10
374.7023831327
 20
86.6310419136
 10
374.6586815264
 20
86.5978195274
 10
374.6192577594
 20
86.5518647279
 10
374.5879708696
 20
86.4976732947
 10
374.5678834511
 20
86.440553941
 10
374.5609617862
 20
86.3860926147
 10
374.5678834511
 20
86.3396228726
 10
374.5879708696
 20
86.3056935252
 10
374.6192577594
 20
86.2876275996
 10
374.6586815264
 20
86.2871880791
 10
374.7023831327
 20
86.3044249269
  0
LINE
  5
172
330
1F
100
AcDbEntity
  8
0
  6
Continuous
 62
     7
370
    25
100
AcDbLine
 10
381.6037452168
 20
91.5622996722
 30
0.0
 11
381.6108164043
 21
91.5582175626
 31
0.0
  0
LINE
  5
173
330
1F
100
AcDbEntity
  8
0
  6
Continuous
 62
     7
370
    25
100
AcDbLine
 10
381.6037452168
 20
91.5622996722
 30
0.0
 11
365.6797006865
 21
82.3695444382
 31
0.0
  0
LINE
  5
174
330
1F
100
AcDbEntity
  8
0
  6
Continuous
 62
     7
370
    25
100
AcDbLine
 10
366.4963290671
 20
79.4523291006
 30
0.0
 11
366.9913838423
 21
79.1665400621
 31
0.0
  0
LWPOLYLINE
  5
175
330
1F
100
AcDbEntity
  8
0
  6
Continuous
 62
     7
370
    25
100
AcDbPolyline
 90
        3
 70
   128
 43
0.0
 10
365.9604503275
 20
79.1429731605
 10
365.9812192408
 20
79.1269616313
 10
366.0263079393
 20
79.0842816571
  0
ARC
  5
176
330
1F
100
AcDbEntity
  8
0
  6
Continuous
 62
     7
370
    25
100
AcDbCircle
 10
365.5308677553
 20
79.1419193203
 30
0.0
 40
0.2059213922351807
100
AcDbArc
 50
294.438581485
 51
313.6519802192
  0
LINE
  5
177
330
1F
100
AcDbEntity
  8
0
  6
Continuous
 62
     7
370
    25
100
AcDbLine
 10
364.5193658101
 20
78.6182425969
 30
0.0
 11
364.5189980788
 21
78.6334414755
 31
0.0
  0
LINE
  5
178
330
1F
100
AcDbEntity
  8
0
  6
Continuous
 62
     7
370
    25
100
AcDbLine
 10
364.5193658101
 20
78.5409649663
 30
0.0
 11
364.5189980788
 21
78.5561638449
 31
0.0
  0
LWPOLYLINE
  5
179
330
1F
100
AcDbEntity
  8
0
  6
Continuous
 62
     7
370
    25
100
AcDbPolyline
 90
        8
 70
   128
 43
0.0
 10
365.8761898211
 20
78.9329981506
 10
365.8756208387
 20
78.9204385619
 10
365.8620258459
 20
78.8708884659
 10
365.8308824858
 20
78.824052173
 10
365.7835510481
 20
78.7819777331
 10
365.722100943
 20
78.7465033425
 10
365.6492185052
 20
78.7191797893
 10
365.6160610526
 20
78.7104617388
  0
LWPOLYLINE
  5
17A
330
1F
100
AcDbEntity
  8
0
  6
Continuous
 62
     7
370
    25
100
AcDbPolyline
 90
        8
 70
   128
 43
0.0
 10
365.8733080304
 20
79.0926670465
 10
365.8756208387
 20
79.0519000861
 10
365.8620258459
 20
79.0023499901
 10
365.8308824858
 20
78.9555136972
 10
365.7835510481
 20
78.9134392573
 10
365.722100943
 20
78.8779648667
 10
365.6492185052
 20
78.8506413135
 10
365.6160610526
 20
78.841923263
  0
LWPOLYLINE
  5
17B
330
1F
100
AcDbEntity
  8
0
  6
Continuous
 62
     7
370
    25
100
AcDbPolyline
 90
       16
 70
   128
 43
0.0
 10
378.0752827091
 20
85.5902275631
 10
378.0831167546
 20
85.5874204158
 10
378.1717700162
 20
85.5664485687
 10
378.2674080644
 20
85.5625913483
 10
378.3685905304
 20
85.5759054681
 10
378.4737948595
 20
85.6061933506
 10
378.5814358032
 20
85.6529924789
 10
378.689893869
 20
85.7156039876
 10
378.7975348128
 20
85.7930844475
 10
378.9027391419
 20
85.8842628979
 10
379.0039216079
 20
85.9877715668
 10
379.099559656
 20
86.1020501272
 10
379.1882129177
 20
86.2253788514
 10
379.2685469183
 20
86.3558971641
 10
379.3393509896
 20
86.491645618
 10
379.3643951739
 20
86.5461243505
  0
LWPOLYLINE
  5
17C
330
1F
100
AcDbEntity
  8
0
  6
Continuous
 62
     7
370
    25
100
AcDbPolyline
 90
       10
 70
   128
 43
0.0
 10
378.301940031
 20
85.9327820519
 10
378.3442459839
 20
85.9274432829
 10
378.4230542686
 20
85.9307953089
 10
378.5062985091
 20
85.9502602148
 10
378.5922406747
 20
85.9854259928
 10
378.6790889976
 20
86.0355624624
 10
378.7650311632
 20
86.0996233968
 10
378.8482754037
 20
86.1762702452
 10
378.9270836884
 20
86.2639083278
 10
378.9693896413
 20
86.3180925103
  0
ARC
  5
17D
330
1F
100
AcDbEntity
  8
0
  6
Continuous
 62
     7
370
    25
100
AcDbCircle
 10
378.1795994281
 20
86.7521429576
 30
0.0
 40
0.8010085998953382
100
AcDbArc
 50
284.2043863556
 51
315.7902371117
  0
LINE
  5
17E
330
1F
100
AcDbEntity
  8
0
  6
Continuous
 62
     8
370
    25
100
AcDbLine
 10
330.9855071226
 20
179.4268813342
 30
0.0
 11
361.3910992194
 21
161.8741066381
 31
0.0
  0
LINE
  5
17F
330
1F
100
AcDbEntity
  8
0
  6
Continuous
 62
     8
370
    25
100
AcDbLine
 10
330.9855071226
 20
177.9979314092
 30
0.0
 11
361.3910992194
 21
160.4451567131
 31
0.0
  0
LINE
  5
180
330
1F
100
AcDbEntity
  8
0
  6
Continuous
 62
     8
370
    25
100
AcDbLine
 10
330.9855071226
 20
176.5689863512
 30
0.0
 11
361.3910992194
 21
159.016211655
 31
0.0
  0
LINE
  5
181
330
1F
100
AcDbEntity
  8
0
  6
Continuous
 62
     8
370
    25
100
AcDbLine
 10
330.9855071226
 20
175.1400412931
 30
0.0
 11
361.3910992194
 21
157.587266597
 31
0.0
  0
LINE
  5
182
330
1F
100
AcDbEntity
  8
0
  6
Continuous
 62
     8
370
    25
100
AcDbLine
 10
330.9855071226
 20
173.7110938016
 30
0.0
 11
361.3910992194
 21
156.1583191054
 31
0.0
  0
LINE
  5
183
330
1F
100
AcDbEntity
  8
0
  6
Continuous
 62
     8
370
    25
100
AcDbLine
 10
365.8289010571
 20
163.1992863133
 30
0.0
 11
365.9703216463
 21
163.117645945
 31
0.0
  0
LINE
  5
184
330
1F
100
AcDbEntity
  8
0
  6
Continuous
 62
     8
370
    25
100
AcDbLine
 10
368.2330173554
 20
164.7504885919
 30
0.0
 11
368.515905949
 21
164.587180483
 31
0.0
  0
LINE
  5
185
330
1F
100
AcDbEntity
  8
0
  6
Continuous
 62
     8
370
    25
100
AcDbLine
 10
365.8289010571
 20
161.4437242686
 30
0.0
 11
365.9703216463
 21
161.3620839003
 31
0.0
  0
LINE
  5
186
330
1F
100
AcDbEntity
  8
0
  6
Continuous
 62
     8
370
    25
100
AcDbLine
 10
368.2330173554
 20
162.9949265472
 30
0.0
 11
368.515905949
 21
162.8316184383
 31
0.0
  0
LINE
  5
187
330
1F
100
AcDbEntity
  8
0
  6
Continuous
 62
     8
370
    25
100
AcDbLine
 10
365.8289010571
 20
159.6881622239
 30
0.0
 11
365.9703216463
 21
159.6065218555
 31
0.0
  0
LINE
  5
188
330
1F
100
AcDbEntity
  8
0
  6
Continuous
 62
     8
370
    25
100
AcDbLine
 10
368.2330173554
 20
161.2393645025
 30
0.0
 11
368.515905949
 21
161.0760563936
 31
0.0
  0
LINE
  5
189
330
1F
100
AcDbEntity
  8
0
  6
Continuous
 62
     8
370
    25
100
AcDbLine
 10
365.8289010571
 20
157.9325977457
 30
0.0
 11
365.9703216463
 21
157.8509573774
 31
0.0
  0
LINE
  5
18A
330
1F
100
AcDbEntity
  8
0
  6
Continuous
 62
     8
370
    25
100
AcDbLine
 10
368.2330173554
 20
159.4838000243
 30
0.0
 11
368.515905949
 21
159.3204919154
 31
0.0
  0
LINE
  5
18B
330
1F
100
AcDbEntity
  8
0
  6
Continuous
 62
     8
370
    25
100
AcDbLine
 10
376.8583525176
 20
169.5664531125
 30
0.0
 11
376.9997731068
 21
169.4848127442
 31
0.0
  0
LINE
  5
18C
330
1F
100
AcDbEntity
  8
0
  6
Continuous
 62
     8
370
    25
100
AcDbLine
 10
377.2472146202
 20
169.9542739072
 30
0.0
 11
377.5301032137
 21
169.7909657983
 31
0.0
  0
LINE
  5
18D
330
1F
100
AcDbEntity
  8
0
  6
Continuous
 62
     8
370
    25
100
AcDbLine
 10
378.2725660484
 20
170.3828612061
 30
0.0
 11
378.4139866375
 21
170.3012208377
 31
0.0
  0
LINE
  5
18E
330
1F
100
AcDbEntity
  8
0
  6
Continuous
 62
     8
370
    25
100
AcDbLine
 10
376.8583525176
 20
167.8108910678
 30
0.0
 11
376.9997731068
 21
167.7292506994
 31
0.0
  0
LINE
  5
18F
330
1F
100
AcDbEntity
  8
0
  6
Continuous
 62
     8
370
    25
100
AcDbLine
 10
380.6766826101
 20
171.9340636368
 30
0.0
 11
380.9595712036
 21
171.7707555278
 31
0.0
  0
LINE
  5
190
330
1F
100
AcDbEntity
  8
0
  6
Continuous
 62
     8
370
    25
100
AcDbLine
 10
377.2472146202
 20
168.1987118625
 30
0.0
 11
377.5301032137
 21
168.0354037535
 31
0.0
  0
LINE
  5
191
330
1F
100
AcDbEntity
  8
0
  6
Continuous
 62
     8
370
    25
100
AcDbLine
 10
378.2725660484
 20
168.6272991614
 30
0.0
 11
378.4139866375
 21
168.545658793
 31
0.0
  0
LINE
  5
192
330
1F
100
AcDbEntity
  8
0
  6
Continuous
 62
     8
370
    25
100
AcDbLine
 10
376.8583525176
 20
166.0553290231
 30
0.0
 11
376.9997731068
 21
165.9736886547
 31
0.0
  0
LINE
  5
193
330
1F
100
AcDbEntity
  8
0
  6
Continuous
 62
     8
370
    25
100
AcDbLine
 10
380.6766826101
 20
170.178501592
 30
0.0
 11
380.9595712036
 21
170.0151934831
 31
0.0
  0
LINE
  5
194
330
1F
100
AcDbEntity
  8
0
  6
Continuous
 62
     8
370
    25
100
AcDbLine
 10
377.2472146202
 20
166.4431498178
 30
0.0
 11
377.5301032137
 21
166.2798417088
 31
0.0
  0
LINE
  5
195
330
1F
100
AcDbEntity
  8
0
  6
Continuous
 62
     8
370
    25
100
AcDbLine
 10
378.2725660484
 20
166.8717371167
 30
0.0
 11
378.4139866375
 21
166.7900967483
 31
0.0
  0
LINE
  5
196
330
1F
100
AcDbEntity
  8
0
  6
Continuous
 62
     8
370
    25
100
AcDbLine
 10
376.8583525176
 20
164.2997645449
 30
0.0
 11
376.9997731068
 21
164.2181241765
 31
0.0
  0
LINE
  5
197
330
1F
100
AcDbEntity
  8
0
  6
Continuous
 62
     8
370
    25
100
AcDbLine
 10
380.6766826101
 20
168.4229395473
 30
0.0
 11
380.9595712036
 21
168.2596314384
 31
0.0
  0
LINE
  5
198
330
1F
100
AcDbEntity
  8
0
  6
Continuous
 62
     8
370
    25
100
AcDbLine
 10
377.2472146202
 20
164.6875853396
 30
0.0
 11
377.5301032137
 21
164.5242772306
 31
0.0
  0
LINE
  5
199
330
1F
100
AcDbEntity
  8
0
  6
Continuous
 62
     8
370
    25
100
AcDbLine
 10
378.2725660484
 20
165.1161726385
 30
0.0
 11
378.4139866375
 21
165.0345322701
 31
0.0
  0
LINE
  5
19A
330
1F
100
AcDbEntity
  8
0
  6
Continuous
 62
     8
370
    25
100
AcDbLine
 10
380.6766826101
 20
166.6673750691
 30
0.0
 11
380.9595712036
 21
166.5040669602
 31
0.0
  0
LINE
  5
19B
330
1F
100
AcDbEntity
  8
0
  6
Continuous
 62
     8
370
    25
100
AcDbLine
 10
364.3073344982
 20
155.0741627662
 30
0.0
 11
364.3073344982
 21
155.1153178012
 31
0.0
  0
LINE
  5
19C
330
1F
100
AcDbEntity
  8
0
  6
Continuous
 62
     8
370
    25
100
AcDbLine
 10
364.3432689013
 20
155.1765470698
 30
0.0
 11
364.3432689013
 21
155.2173687178
 31
0.0
  0
LINE
  5
19D
330
1F
100
AcDbEntity
  8
0
  6
Continuous
 62
     8
370
    25
100
AcDbLine
 10
366.7827880255
 20
81.8958207236
 30
0.0
 11
366.9242086147
 21
81.8141803552
 31
0.0
  0
LINE
  5
19E
330
1F
100
AcDbEntity
  8
0
  6
Continuous
 62
     8
370
    25
100
AcDbLine
 10
369.1869043238
 20
83.4470230022
 30
0.0
 11
369.4697929174
 21
83.2837148932
 31
0.0
  0
LWPOLYLINE
  5
19F
330
1F
100
AcDbEntity
  8
0
  6
Continuous
 62
     8
370
    25
100
AcDbPolyline
 90
       29
 70
   128
 43
0.0
 10
366.1314448334
 20
79.0397463505
 10
366.1955480827
 20
78.9957987387
 10
366.2654823484
 20
78.9336309641
 10
366.3197485232
 20
78.8664498162
 10
366.3572908285
 20
78.7955618621
 10
366.3773774897
 20
78.722347574
 10
366.3796191752
 20
78.6482318275
 10
366.3639700503
 20
78.5746577467
 10
366.3307367335
 20
78.5030565944
 10
366.2805645982
 20
78.4348228328
 10
366.2144314513
 20
78.3712837102
 10
366.1336227718
 20
78.3136764507
 10
366.0397137982
 20
78.2631220986
 10
365.9345294888
 20
78.2206048371
 10
365.820120288
 20
78.1869519154
 10
365.6987104957
 20
78.1628184417
 10
365.5726640232
 20
78.1486749141
 10
365.4444353976
 20
78.1447947506
 10
365.3165181319
 20
78.151256114
 10
365.1914041584
 20
78.1679306591
 10
365.0715279846
 20
78.1944950895
 10
364.9592224383
 20
78.2304323747
 10
364.8566728339
 20
78.2750430024
 10
364.7658769318
 20
78.327458361
 10
364.6886006851
 20
78.3866589875
 10
364.6263487361
 20
78.4514915993
 10
364.5803317533
 20
78.5206952498
 10
364.5514474643
 20
78.5929220093
 10
364.5445875379
 20
78.6237270041
  0
LWPOLYLINE
  5
1A0
330
1F
100
AcDbEntity
  8
0
  6
Continuous
 62
     8
370
    25
100
AcDbPolyline
 90
       13
 70
   128
 43
0.0
 10
366.0263079393
 20
79.0842816571
 10
366.0359695775
 20
79.0731013239
 10
366.074165159
 20
79.0146732021
 10
366.0947059524
 20
78.9533597447
 10
366.0970024288
 20
78.8909240265
 10
366.0809866264
 20
78.8291625772
 10
366.0471221605
 20
78.7698515494
 10
365.9963805159
 20
78.7146977528
 10
365.9302226078
 20
78.6652878634
 10
365.8505518932
 20
78.6230431075
 10
365.7596595802
 20
78.5891791155
 10
365.6601614076
 20
78.564669426
 10
365.6160615795
 20
78.5572828817
  0
LWPOLYLINE
  5
1A1
330
1F
100
AcDbEntity
  8
0
  6
Continuous
 62
     8
370
    25
100
AcDbPolyline
 90
       25
 70
   128
 43
0.0
 10
366.4019606928
 20
78.6286248781
 10
366.4014486085
 20
78.6148852427
 10
366.388307748
 20
78.5410924884
 10
366.3578840454
 20
78.4690196215
 10
366.3107427954
 20
78.4000100097
 10
366.2477632865
 20
78.3353486263
 10
366.1701182548
 20
78.276240457
 10
366.0792549178
 20
78.2237861691
 10
365.9768654713
 20
78.1789626464
 10
365.8648565336
 20
78.1426053498
 10
365.7453154271
 20
78.1153912854
 10
365.6204680325
 20
78.0978280557
 10
365.4926413825
 20
78.0902419984
 10
365.3642157204
 20
78.0927748407
 10
365.2375844603
 20
78.1053788333
 10
365.1151046649
 20
78.1278197917
 10
364.9990591127
 20
78.1596795292
 10
364.8916088834
 20
78.2003649813
 10
364.7947564792
 20
78.2491173292
 10
364.7103057852
 20
78.3050290321
 10
364.6398299325
 20
78.3670581208
 10
364.5846402149
 20
78.4340504004
 10
364.5457681765
 20
78.504755873
 10
364.5239340016
 20
78.5778591517
 10
364.5193658101
 20
78.6182425969
  0
LWPOLYLINE
  5
1A2
330
1F
100
AcDbEntity
  8
0
  6
Continuous
 62
     8
370
    25
100
AcDbPolyline
 90
       25
 70
   128
 43
0.0
 10
366.4019975712
 20
78.556164149
 10
366.4014486085
 20
78.5376076121
 10
366.388307748
 20
78.4638148577
 10
366.3578840454
 20
78.3917419909
 10
366.3107427954
 20
78.3227323791
 10
366.2477632865
 20
78.2580709957
 10
366.1701182548
 20
78.1989628264
 10
366.0792549178
 20
78.1465085384
 10
365.9768654713
 20
78.1016850158
 10
365.8648565336
 20
78.0653277192
 10
365.7453154271
 20
78.0381136548
 10
365.6204680325
 20
78.0205504251
 10
365.4926413825
 20
78.0129643678
 10
365.3642157204
 20
78.0154972101
 10
365.2375844603
 20
78.0281012027
 10
365.1151046649
 20
78.050542161
 10
364.9990591127
 20
78.0824018986
 10
364.8916088834
 20
78.1230873506
 10
364.7947564792
 20
78.1718396986
 10
364.7103057852
 20
78.2277514014
 10
364.6398299325
 20
78.2897804902
 10
364.5846402149
 20
78.3567727698
 10
364.5457681765
 20
78.4274782424
 10
364.5239340016
 20
78.500581521
 10
364.5193658101
 20
78.5409649663
  0
LWPOLYLINE
  5
1A3
330
1F
100
AcDbEntity
  8
0
  6
Continuous
 62
     8
370
    25
100
AcDbPolyline
 90
       13
 70
   128
 43
0.0
 10
365.9358434168
 20
79.12876849
 10
365.9388131892
 20
79.1263430076
 10
365.9897044551
 20
79.0754568434
 10
366.0245156446
 20
79.0202428279
 10
366.0421904523
 20
78.9623770531
 10
366.0421904523
 20
78.9036192482
 10
366.0245166983
 20
78.8457534733
 10
365.9897044551
 20
78.7905388496
 10
365.9388121355
 20
78.7396532937
 10
365.8733881094
 20
78.694641511
 10
365.7954169665
 20
78.6568730246
 10
365.7072710475
 20
78.6274935139
 10
365.6160610526
 20
78.608094521
  0
LINE
  5
1A4
330
1F
100
AcDbEntity
  8
0
  6
Continuous
 62
     8
370
    25
100
AcDbLine
 10
368.7273313998
 20
82.201841686
 30
0.0
 11
368.868751989
 21
82.1202013177
 31
0.0
  0
LINE
  5
1A5
330
1F
100
AcDbEntity
  8
0
  6
Continuous
 62
     8
370
    25
100
AcDbLine
 10
371.1314479616
 20
83.7530441167
 30
0.0
 11
371.4143365551
 21
83.5897360077
 31
0.0
  0
LINE
  5
1A6
330
1F
100
AcDbEntity
  8
0
  6
Continuous
 62
     8
370
    25
100
AcDbLine
 10
370.671875301
 20
84.1409430189
 30
0.0
 11
370.8132958901
 21
84.0593026506
 31
0.0
  0
LINE
  5
1A7
330
1F
100
AcDbEntity
  8
0
  6
Continuous
 62
     8
370
    25
100
AcDbLine
 10
373.0759916651
 20
85.6921453355
 30
0.0
 11
373.3588802587
 21
85.5288372266
 31
0.0
  0
LINE
  5
1A8
330
1F
100
AcDbEntity
  8
0
  6
Continuous
 62
     8
370
    25
100
AcDbLine
 10
372.6164189387
 20
84.4469641334
 30
0.0
 11
372.7578395279
 21
84.3653237651
 31
0.0
  0
LINE
  5
1A9
330
1F
100
AcDbEntity
  8
0
  6
Continuous
 62
     8
370
    25
100
AcDbLine
 10
375.0205353687
 20
85.9981664881
 30
0.0
 11
375.3034239623
 21
85.8348583791
 31
0.0
  0
LINE
  5
1AA
330
1F
100
AcDbEntity
  8
0
  6
Continuous
 62
     8
370
    25
100
AcDbLine
 10
374.5609625435
 20
86.3860652953
 30
0.0
 11
374.7023831327
 21
86.3044249269
 31
0.0
  0
LINE
  5
1AB
330
1F
100
AcDbEntity
  8
0
  6
Continuous
 62
     8
370
    25
100
AcDbLine
 10
376.9650788747
 20
87.9372675929
 30
0.0
 11
377.2479674683
 21
87.7739594839
 31
0.0
  0
LINE
  5
1AC
330
1F
100
AcDbEntity
  8
0
  6
Continuous
 62
     8
370
    25
100
AcDbLine
 10
376.5055062141
 20
86.6920864288
 30
0.0
 11
376.6469268033
 21
86.6104460604
 31
0.0
  0
LINE
  5
1AD
330
1F
100
AcDbEntity
  8
0
  6
Continuous
 62
     8
370
    25
100
AcDbLine
 10
378.9096227759
 20
88.2432888594
 30
0.0
 11
379.1925113694
 21
88.0799807505
 31
0.0
  0
LINE
  5
1AE
330
1F
100
AcDbEntity
  8
0
  6
Continuous
 62
     7
370
    25
100
AcDbLine
 10
116.0250000358
 20
276.7546444035
 30
0.0
 11
72.9749999642
 21
276.7546444035
 31
0.0
  0
LINE
  5
1AF
330
1F
100
AcDbEntity
  8
0
  6
Continuous
 62
     7
370
    25
100
AcDbLine
 10
116.0250000358
 20
282.0046453571
 30
0.0
 11
72.9749999642
 21
282.0046453571
 31
0.0
  0
LINE
  5
1B0
330
1F
100
AcDbEntity
  8
0
  6
Continuous
 62
     7
370
    25
100
AcDbLine
 10
116.0250000358
 20
278.5046427345
 30
0.0
 11
72.9749999642
 21
278.5046427345
 31
0.0
  0
LINE
  5
1B1
330
1F
100
AcDbEntity
  8
0
  6
Continuous
 62
     7
370
    25
100
AcDbLine
 10
116.0250000358
 20
280.2546470261
 30
0.0
 11
72.9749999642
 21
280.2546470261
 31
0.0
  0
LINE
  5
1B2
330
1F
100
AcDbEntity
  8
0
  6
Continuous
 62
     7
370
    25
100
AcDbLine
 10
116.0250000358
 20
275.0046460724
 30
0.0
 11
72.9749999642
 21
275.0046460724
 31
0.0
  0
LINE
  5
1B3
330
1F
100
AcDbEntity
  8
0
  6
Continuous
 62
     7
370
    25
100
AcDbLine
 10
75.0250003934
 20
203.890000174
 30
0.0
 11
113.9749996066
 21
203.890000174
 31
0.0
  0
LINE
  5
1B4
330
1F
100
AcDbEntity
  8
0
  6
Continuous
 62
     7
370
    25
100
AcDbLine
 10
113.9749996066
 20
205.3900002337
 30
0.0
 11
75.0250003934
 21
205.3900002337
 31
0.0
  0
LINE
  5
1B5
330
1F
100
AcDbEntity
  8
0
  6
Continuous
 62
     7
370
    25
100
AcDbLine
 10
75.1500002742
 20
262.3400001621
 30
0.0
 11
75.1500002742
 21
212.5400005674
 31
0.0
  0
LINE
  5
1B6
330
1F
100
AcDbEntity
  8
0
  6
Continuous
 62
     7
370
    25
100
AcDbLine
 10
76.6500003338
 20
212.5400005674
 30
0.0
 11
76.6500003338
 21
262.3400001621
 31
0.0
  0
LINE
  5
1B7
330
1F
100
AcDbEntity
  8
0
  6
Continuous
 62
     7
370
    25
100
AcDbLine
 10
72.1850000024
 20
182.5049995279
 30
0.0
 11
72.1850000024
 21
272.4900006151
 31
0.0
  0
LINE
  5
1B8
330
1F
100
AcDbEntity
  8
0
  6
Continuous
 62
     7
370
    25
100
AcDbLine
 10
73.0825222731
 20
207.1400000548
 30
0.0
 11
73.0825222731
 21
207.5399993753
 31
0.0
  0
LINE
  5
1B9
330
1F
100
AcDbEntity
  8
0
  6
Continuous
 62
     7
370
    25
100
AcDbLine
 10
73.0825222731
 20
272.3399995661
 30
0.0
 11
73.0825222731
 21
272.4900006151
 31
0.0
  0
LINE
  5
1BA
330
1F
100
AcDbEntity
  8
0
  6
Continuous
 62
     7
370
    25
100
AcDbLine
 10
116.8149999976
 20
272.4900006151
 30
0.0
 11
116.8149999976
 21
182.5049995279
 31
0.0
  0
LINE
  5
1BB
330
1F
100
AcDbEntity
  8
0
  6
Continuous
 62
     7
370
    25
100
AcDbLine
 10
115.9174777269
 20
272.4900006151
 30
0.0
 11
115.9174777269
 21
272.3399995661
 31
0.0
  0
LINE
  5
1BC
330
1F
100
AcDbEntity
  8
0
  6
Continuous
 62
     7
370
    25
100
AcDbLine
 10
115.9174777269
 20
207.5399993753
 30
0.0
 11
115.9174777269
 21
207.1400000548
 31
0.0
  0
ARC
  5
1BD
330
1F
100
AcDbEntity
  8
0
  6
Continuous
 62
     7
370
    25
100
AcDbCircle
 10
116.3415
 20
176.6596408368
 30
0.0
 40
0.0750000000000029
100
AcDbArc
 50
0.0
 51
44.0751062253
  0
ARC
  5
1BE
330
1F
100
AcDbEntity
  8
0
  6
Continuous
 62
     7
370
    25
100
AcDbCircle
 10
114.6085
 20
176.6596408368
 30
0.0
 40
0.0750000000000171
100
AcDbArc
 50
135.9248937747
 51
180.0
  0
ARC
  5
1BF
330
1F
100
AcDbEntity
  8
0
  6
Continuous
 62
     7
370
    25
100
AcDbCircle
 10
74.3915
 20
176.565
 30
0.0
 40
0.0750000000000171
100
AcDbArc
 50
270.0
 51
0.0
  0
ARC
  5
1C0
330
1F
100
AcDbEntity
  8
0
  6
Continuous
 62
     7
370
    25
100
AcDbCircle
 10
72.6585
 20
176.565
 30
0.0
 40
0.0750000000000171
100
AcDbArc
 50
180.0
 51
270.0
  0
ARC
  5
1C1
330
1F
100
AcDbEntity
  8
0
  6
Continuous
 62
     7
370
    25
100
AcDbCircle
 10
74.3915
 20
176.6596408368
 30
0.0
 40
0.0750000000000171
100
AcDbArc
 50
0.0
 51
44.0751062253
  0
ARC
  5
1C2
330
1F
100
AcDbEntity
  8
0
  6
Continuous
 62
     7
370
    25
100
AcDbCircle
 10
72.6585
 20
176.6596408368
 30
0.0
 40
0.0750000000000029
100
AcDbArc
 50
135.9248937747
 51
180.0
  0
LINE
  5
1C3
330
1F
100
AcDbEntity
  8
0
  6
Continuous
 62
     7
370
    25
100
AcDbLine
 10
116.4164997339
 20
176.5650003052
 30
0.0
 11
116.4164997339
 21
176.6596405602
 31
0.0
  0
LINE
  5
1C4
330
1F
100
AcDbEntity
  8
0
  6
Continuous
 62
     7
370
    25
100
AcDbLine
 10
114.5334995985
 20
176.6596405602
 30
0.0
 11
114.5334995985
 21
176.5650003052
 31
0.0
  0
ARC
  5
1C5
330
1F
100
AcDbEntity
  8
0
  6
Continuous
 62
     7
370
    25
100
AcDbCircle
 10
116.3415
 20
176.565
 30
0.0
 40
0.0750000000000171
100
AcDbArc
 50
270.0
 51
0.0
  0
ARC
  5
1C6
330
1F
100
AcDbEntity
  8
0
  6
Continuous
 62
     7
370
    25
100
AcDbCircle
 10
114.6085
 20
176.565
 30
0.0
 40
0.0750000000000171
100
AcDbArc
 50
180.0
 51
270.0
  0
LINE
  5
1C7
330
1F
100
AcDbEntity
  8
0
  6
Continuous
 62
     7
370
    25
100
AcDbLine
 10
74.4665004015
 20
176.5650003052
 30
0.0
 11
74.4665004015
 21
176.6596405602
 31
0.0
  0
LINE
  5
1C8
330
1F
100
AcDbEntity
  8
0
  6
Continuous
 62
     7
370
    25
100
AcDbLine
 10
72.5835002661
 20
176.6596405602
 30
0.0
 11
72.5835002661
 21
176.5650003052
 31
0.0
  0
LINE
  5
1C9
330
1F
100
AcDbEntity
  8
0
  6
Continuous
 62
     7
370
    25
100
AcDbLine
 10
74.4453824759
 20
176.7118095255
 30
0.0
 11
74.162796855
 21
177.0036696291
 31
0.0
  0
LINE
  5
1CA
330
1F
100
AcDbEntity
  8
0
  6
Continuous
 62
     7
370
    25
100
AcDbLine
 10
72.8872038126
 20
177.0036696291
 30
0.0
 11
72.6046181917
 21
176.7118095255
 31
0.0
  0
LINE
  5
1CB
330
1F
100
AcDbEntity
  8
0
  6
Continuous
 62
     7
370
    25
100
AcDbLine
 10
116.3953818083
 20
176.7118095255
 30
0.0
 11
116.1127961874
 21
177.0036696291
 31
0.0
  0
LINE
  5
1CC
330
1F
100
AcDbEntity
  8
0
  6
Continuous
 62
     7
370
    25
100
AcDbLine
 10
114.837203145
 20
177.0036696291
 30
0.0
 11
114.5546175241
 21
176.7118095255
 31
0.0
  0
ARC
  5
1CD
330
1F
100
AcDbEntity
  8
0
  6
Continuous
 62
     7
370
    25
100
AcDbCircle
 10
116.0589145804
 20
176.9515
 30
0.0
 40
0.0750000000000171
100
AcDbArc
 50
44.0751062253
 51
90.0
  0
ARC
  5
1CE
330
1F
100
AcDbEntity
  8
0
  6
Continuous
 62
     7
370
    25
100
AcDbCircle
 10
114.8910854196
 20
176.9515
 30
0.0
 40
0.0750000000000171
100
AcDbArc
 50
90.0
 51
135.9248937747
  0
ARC
  5
1CF
330
1F
100
AcDbEntity
  8
0
  6
Continuous
 62
     7
370
    25
100
AcDbCircle
 10
74.1089145804
 20
176.9515
 30
0.0
 40
0.0750000000000171
100
AcDbArc
 50
44.0751062253
 51
90.0
  0
ARC
  5
1D0
330
1F
100
AcDbEntity
  8
0
  6
Continuous
 62
     7
370
    25
100
AcDbCircle
 10
72.9410854196
 20
176.9515
 30
0.0
 40
0.0750000000000171
100
AcDbArc
 50
90.0
 51
135.9248937747
  0
LINE
  5
1D1
330
1F
100
AcDbEntity
  8
0
  6
Continuous
 62
     7
370
    25
100
AcDbLine
 10
115.8906928897
 20
177.0265011883
 30
0.0
 11
115.8906928897
 21
177.1874992943
 31
0.0
  0
LINE
  5
1D2
330
1F
100
AcDbEntity
  8
0
  6
Continuous
 62
     7
370
    25
100
AcDbLine
 10
115.0593079329
 20
177.1874992943
 30
0.0
 11
115.0593079329
 21
177.0265011883
 31
0.0
  0
LINE
  5
1D3
330
1F
100
AcDbEntity
  8
0
  6
Continuous
 62
     7
370
    25
100
AcDbLine
 10
73.9406920671
 20
177.0265011883
 30
0.0
 11
73.9406920671
 21
177.1874992943
 31
0.0
  0
LINE
  5
1D4
330
1F
100
AcDbEntity
  8
0
  6
Continuous
 62
     7
370
    25
100
AcDbLine
 10
73.1093071103
 20
177.1874992943
 30
0.0
 11
73.1093071103
 21
177.0265011883
 31
0.0
  0
LINE
  5
1D5
330
1F
100
AcDbEntity
  8
0
  6
Continuous
 62
     7
370
    25
100
AcDbLine
 10
115.7209999561
 20
177.1874992943
 30
0.0
 11
115.7209999561
 21
177.2549985743
 31
0.0
  0
LINE
  5
1D6
330
1F
100
AcDbEntity
  8
0
  6
Continuous
 62
     7
370
    25
100
AcDbLine
 10
115.2289993763
 20
177.2549985743
 30
0.0
 11
115.2289993763
 21
177.1874992943
 31
0.0
  0
LINE
  5
1D7
330
1F
100
AcDbEntity
  8
0
  6
Continuous
 62
     7
370
    25
100
AcDbLine
 10
73.7710006237
 20
177.1874992943
 30
0.0
 11
73.7710006237
 21
177.2549985743
 31
0.0
  0
LINE
  5
1D8
330
1F
100
AcDbEntity
  8
0
  6
Continuous
 62
     7
370
    25
100
AcDbLine
 10
73.2790000439
 20
177.2549985743
 30
0.0
 11
73.2790000439
 21
177.1874992943
 31
0.0
  0
LINE
  5
1D9
330
1F
100
AcDbEntity
  8
0
  6
Continuous
 62
     7
370
    25
100
AcDbLine
 10
116.4750002027
 20
282.4900000191
 30
0.0
 11
116.4750002027
 21
272.7400003767
 31
0.0
  0
LINE
  5
1DA
330
1F
100
AcDbEntity
  8
0
  6
Continuous
 62
     7
370
    25
100
AcDbLine
 10
72.5249997973
 20
282.4900000191
 30
0.0
 11
116.4750002027
 21
282.4900000191
 31
0.0
  0
LINE
  5
1DB
330
1F
100
AcDbEntity
  8
0
  6
Continuous
 62
     7
370
    25
100
AcDbLine
 10
116.0250000358
 20
282.0400028324
 30
0.0
 11
72.9749999642
 21
282.0400028324
 31
0.0
  0
LINE
  5
1DC
330
1F
100
AcDbEntity
  8
0
  6
Continuous
 62
     7
370
    25
100
AcDbLine
 10
72.9749999642
 20
282.0400028324
 30
0.0
 11
72.9749999642
 21
273.1900005436
 31
0.0
  0
LINE
  5
1DD
330
1F
100
AcDbEntity
  8
0
  6
Continuous
 62
     7
370
    25
100
AcDbLine
 10
72.9749999642
 20
273.1900005436
 30
0.0
 11
116.0250000358
 21
273.1900005436
 31
0.0
  0
LINE
  5
1DE
330
1F
100
AcDbEntity
  8
0
  6
Continuous
 62
     7
370
    25
100
AcDbLine
 10
116.0250000358
 20
273.1900005436
 30
0.0
 11
116.0250000358
 21
282.0400028324
 31
0.0
  0
LINE
  5
1DF
330
1F
100
AcDbEntity
  8
0
  6
Continuous
 62
     7
370
    25
100
AcDbLine
 10
116.4750002027
 20
272.7400003767
 30
0.0
 11
72.5249997973
 21
272.7400003767
 31
0.0
  0
LINE
  5
1E0
330
1F
100
AcDbEntity
  8
0
  6
Continuous
 62
     7
370
    25
100
AcDbLine
 10
72.5249997973
 20
272.7400003767
 30
0.0
 11
72.5249997973
 21
282.4900000191
 31
0.0
  0
LINE
  5
1E1
330
1F
100
AcDbEntity
  8
0
  6
Continuous
 62
     7
370
    25
100
AcDbLine
 10
72.9749999642
 20
276.7296462154
 30
0.0
 11
116.0250000358
 21
276.7296462154
 31
0.0
  0
LINE
  5
1E2
330
1F
100
AcDbEntity
  8
0
  6
Continuous
 62
     7
370
    25
100
AcDbLine
 10
72.9749999642
 20
281.9796471691
 30
0.0
 11
116.0250000358
 21
281.9796471691
 31
0.0
  0
LINE
  5
1E3
330
1F
100
AcDbEntity
  8
0
  6
Continuous
 62
     7
370
    25
100
AcDbLine
 10
72.9749999642
 20
278.4796445465
 30
0.0
 11
116.0250000358
 21
278.4796445465
 31
0.0
  0
LINE
  5
1E4
330
1F
100
AcDbEntity
  8
0
  6
Continuous
 62
     7
370
    25
100
AcDbLine
 10
72.9749999642
 20
280.2296428776
 30
0.0
 11
116.0250000358
 21
280.2296428776
 31
0.0
  0
LINE
  5
1E5
330
1F
100
AcDbEntity
  8
0
  6
Continuous
 62
     7
370
    25
100
AcDbLine
 10
72.9749999642
 20
274.9796449041
 30
0.0
 11
116.0250000358
 21
274.9796449041
 31
0.0
  0
LINE
  5
1E6
330
1F
100
AcDbEntity
  8
0
  6
Continuous
 62
     7
370
    25
100
AcDbLine
 10
72.9749999642
 20
277.7399985886
 30
0.0
 11
116.0250000358
 21
277.7399985886
 31
0.0
  0
LINE
  5
1E7
330
1F
100
AcDbEntity
  8
0
  6
Continuous
 62
     7
370
    25
100
AcDbLine
 10
72.9749999642
 20
274.2399989462
 30
0.0
 11
116.0250000358
 21
274.2399989462
 31
0.0
  0
LINE
  5
1E8
330
1F
100
AcDbEntity
  8
0
  6
Continuous
 62
     7
370
    25
100
AcDbLine
 10
72.9749999642
 20
277.3204474545
 30
0.0
 11
116.0250000358
 21
277.3204474545
 31
0.0
  0
LINE
  5
1E9
330
1F
100
AcDbEntity
  8
0
  6
Continuous
 62
     7
370
    25
100
AcDbLine
 10
72.9749999642
 20
275.9900002575
 30
0.0
 11
116.0250000358
 21
275.9900002575
 31
0.0
  0
LINE
  5
1EA
330
1F
100
AcDbEntity
  8
0
  6
Continuous
 62
     7
370
    25
100
AcDbLine
 10
72.9749999642
 20
279.4900028801
 30
0.0
 11
116.0250000358
 21
279.4900028801
 31
0.0
  0
LINE
  5
1EB
330
1F
100
AcDbEntity
  8
0
  6
Continuous
 62
     7
370
    25
100
AcDbLine
 10
72.9749999642
 20
281.2400012112
 30
0.0
 11
116.0250000358
 21
281.2400012112
 31
0.0
  0
LINE
  5
1EC
330
1F
100
AcDbEntity
  8
0
  6
Continuous
 62
     7
370
    25
100
AcDbLine
 10
72.9749999642
 20
275.5704491234
 30
0.0
 11
116.0250000358
 21
275.5704491234
 31
0.0
  0
LINE
  5
1ED
330
1F
100
AcDbEntity
  8
0
  6
Continuous
 62
     7
370
    25
100
AcDbLine
 10
72.9749999642
 20
279.070451746
 30
0.0
 11
116.0250000358
 21
279.070451746
 31
0.0
  0
LINE
  5
1EE
330
1F
100
AcDbEntity
  8
0
  6
Continuous
 62
     7
370
    25
100
AcDbLine
 10
72.9749999642
 20
280.8204500771
 30
0.0
 11
116.0250000358
 21
280.8204500771
 31
0.0
  0
LINE
  5
1EF
330
1F
100
AcDbEntity
  8
0
  6
Continuous
 62
     7
370
    25
100
AcDbLine
 10
72.9749999642
 20
273.8204507923
 30
0.0
 11
116.0250000358
 21
273.8204507923
 31
0.0
  0
LINE
  5
1F0
330
1F
100
AcDbEntity
  8
0
  6
Continuous
 62
     7
370
    25
100
AcDbLine
 10
75.0250003934
 20
204.6399994588
 30
0.0
 11
75.0250003934
 21
203.890000174
 31
0.0
  0
LINE
  5
1F1
330
1F
100
AcDbEntity
  8
0
  6
Continuous
 62
     7
370
    25
100
AcDbLine
 10
75.0250003934
 20
205.3900002337
 30
0.0
 11
75.0250003934
 21
204.6399994588
 31
0.0
  0
LINE
  5
1F2
330
1F
100
AcDbEntity
  8
0
  6
Continuous
 62
     7
370
    25
100
AcDbLine
 10
113.9749996066
 20
205.3900002337
 30
0.0
 11
113.9749996066
 21
203.890000174
 31
0.0
  0
LINE
  5
1F3
330
1F
100
AcDbEntity
  8
0
  6
Continuous
 62
     7
370
    25
100
AcDbLine
 10
72.5249997973
 20
181.3399999237
 30
0.0
 11
116.4750002027
 21
181.3399999237
 31
0.0
  0
LINE
  5
1F4
330
1F
100
AcDbEntity
  8
0
  6
Continuous
 62
     7
370
    25
100
AcDbLine
 10
72.5249997973
 20
207.1400000548
 30
0.0
 11
72.5249997973
 21
181.3399999237
 31
0.0
  0
LINE
  5
1F5
330
1F
100
AcDbEntity
  8
0
  6
Continuous
 62
     7
370
    25
100
AcDbLine
 10
116.4750002027
 20
207.1400000548
 30
0.0
 11
72.5249997973
 21
207.1400000548
 31
0.0
  0
LINE
  5
1F6
330
1F
100
AcDbEntity
  8
0
  6
Continuous
 62
     7
370
    25
100
AcDbLine
 10
116.4750002027
 20
181.3399999237
 30
0.0
 11
116.4750002027
 21
207.1400000548
 31
0.0
  0
LINE
  5
1F7
330
1F
100
AcDbEntity
  8
0
  6
Continuous
 62
     7
370
    25
100
AcDbLine
 10
76.6500003338
 20
212.5400005674
 30
0.0
 11
75.1500002742
 21
212.5400005674
 31
0.0
  0
LINE
  5
1F8
330
1F
100
AcDbEntity
  8
0
  6
Continuous
 62
     7
370
    25
100
AcDbLine
 10
75.8999995589
 20
262.3400001621
 30
0.0
 11
75.1500002742
 21
262.3400001621
 31
0.0
  0
LINE
  5
1F9
330
1F
100
AcDbEntity
  8
0
  6
Continuous
 62
     7
370
    25
100
AcDbLine
 10
76.6500003338
 20
262.3400001621
 30
0.0
 11
75.8999995589
 21
262.3400001621
 31
0.0
  0
LINE
  5
1FA
330
1F
100
AcDbEntity
  8
0
  6
Continuous
 62
     7
370
    25
100
AcDbLine
 10
72.5249997973
 20
207.5399993753
 30
0.0
 11
116.4750002027
 21
207.5399993753
 31
0.0
  0
LINE
  5
1FB
330
1F
100
AcDbEntity
  8
0
  6
Continuous
 62
     7
370
    25
100
AcDbLine
 10
72.5249997973
 20
272.3399995661
 30
0.0
 11
72.5249997973
 21
207.5399993753
 31
0.0
  0
LINE
  5
1FC
330
1F
100
AcDbEntity
  8
0
  6
Continuous
 62
     7
370
    25
100
AcDbLine
 10
116.4750002027
 20
272.3399995661
 30
0.0
 11
72.5249997973
 21
272.3399995661
 31
0.0
  0
LINE
  5
1FD
330
1F
100
AcDbEntity
  8
0
  6
Continuous
 62
     7
370
    25
100
AcDbLine
 10
116.4750002027
 20
207.5399993753
 30
0.0
 11
116.4750002027
 21
272.3399995661
 31
0.0
  0
LINE
  5
1FE
330
1F
100
AcDbEntity
  8
0
  6
Continuous
 62
     7
370
    25
100
AcDbLine
 10
72.3500005603
 20
282.4900000191
 30
0.0
 11
72.3500005603
 21
272.7400003767
 31
0.0
  0
LINE
  5
1FF
330
1F
100
AcDbEntity
  8
0
  6
Continuous
 62
     7
370
    25
100
AcDbLine
 10
72.3500005603
 20
282.4900000191
 30
0.0
 11
72.5249997973
 21
282.4900000191
 31
0.0
  0
LINE
  5
200
330
1F
100
AcDbEntity
  8
0
  6
Continuous
 62
     7
370
    25
100
AcDbLine
 10
116.4750002027
 20
282.4900000191
 30
0.0
 11
116.6499994397
 21
282.4900000191
 31
0.0
  0
LINE
  5
201
330
1F
100
AcDbEntity
  8
0
  6
Continuous
 62
     7
370
    25
100
AcDbLine
 10
116.6499994397
 20
282.4900000191
 30
0.0
 11
116.6499994397
 21
272.7400003767
 31
0.0
  0
LINE
  5
202
330
1F
100
AcDbEntity
  8
0
  6
Continuous
 62
     7
370
    25
100
AcDbLine
 10
72.3500005603
 20
272.7400003767
 30
0.0
 11
72.5249997973
 21
272.7400003767
 31
0.0
  0
LINE
  5
203
330
1F
100
AcDbEntity
  8
0
  6
Continuous
 62
     7
370
    25
100
AcDbLine
 10
116.4750002027
 20
272.7400003767
 30
0.0
 11
116.6499994397
 21
272.7400003767
 31
0.0
  0
LINE
  5
204
330
1F
100
AcDbEntity
  8
0
  6
Continuous
 62
     7
370
    25
100
AcDbLine
 10
72.3999999166
 20
182.2549997663
 30
0.0
 11
72.3999999166
 21
177.2549985743
 31
0.0
  0
LINE
  5
205
330
1F
100
AcDbEntity
  8
0
  6
Continuous
 62
     7
370
    25
100
AcDbLine
 10
116.6000000834
 20
177.2549985743
 30
0.0
 11
116.6000000834
 21
182.2549997663
 31
0.0
  0
LINE
  5
206
330
1F
100
AcDbEntity
  8
0
  6
Continuous
 62
     7
370
    25
100
AcDbLine
 10
92.7000000775
 20
181.3050000763
 30
0.0
 11
96.2999999225
 21
181.3050000763
 31
0.0
  0
LWPOLYLINE
  5
207
330
1F
100
AcDbEntity
  8
0
  6
Continuous
 62
     7
370
    25
100
AcDbPolyline
 90
        3
 70
   128
 43
0.0
 10
96.2999999225
 20
181.3050000763
 10
96.3618034199
 20
181.3147901392
 10
96.413026534
 20
181.3399999237
  0
LWPOLYLINE
  5
208
330
1F
100
AcDbEntity
  8
0
  6
Continuous
 62
     7
370
    25
100
AcDbPolyline
 90
        3
 70
   128
 43
0.0
 10
92.586973466
 20
181.3399999237
 10
92.6381965801
 20
181.3147901392
 10
92.7000000775
 20
181.3050000763
  0
LINE
  5
209
330
1F
100
AcDbEntity
  8
0
  6
Continuous
 62
     7
370
    25
100
AcDbLine
 10
97.700000152
 20
181.3050000763
 30
0.0
 11
101.3000003695
 21
181.3050000763
 31
0.0
  0
LWPOLYLINE
  5
20A
330
1F
100
AcDbEntity
  8
0
  6
Continuous
 62
     7
370
    25
100
AcDbPolyline
 90
        3
 70
   128
 43
0.0
 10
101.3000003695
 20
181.3050000763
 10
101.3618036807
 20
181.3147901392
 10
101.4130264223
 20
181.3399999237
  0
LWPOLYLINE
  5
20B
330
1F
100
AcDbEntity
  8
0
  6
Continuous
 62
     7
370
    25
100
AcDbPolyline
 90
        3
 70
   128
 43
0.0
 10
97.5869735405
 20
181.3399999237
 10
97.6381964684
 20
181.3147901392
 10
97.700000152
 20
181.3050000763
  0
LWPOLYLINE
  5
20C
330
1F
100
AcDbEntity
  8
0
  6
Continuous
 62
     7
370
    25
100
AcDbPolyline
 90
        3
 70
   128
 43
0.0
 10
102.5869734287
 20
181.3399999237
 10
102.6381969154
 20
181.3147901392
 10
102.7000002265
 20
181.3050000763
  0
LINE
  5
20D
330
1F
100
AcDbEntity
  8
0
  6
Continuous
 62
     7
370
    25
100
AcDbLine
 10
107.6999999285
 20
181.3050000763
 30
0.0
 11
111.2999997735
 21
181.3050000763
 31
0.0
  0
LWPOLYLINE
  5
20E
330
1F
100
AcDbEntity
  8
0
  6
Continuous
 62
     7
370
    25
100
AcDbPolyline
 90
        3
 70
   128
 43
0.0
 10
111.2999997735
 20
181.3050000763
 10
111.3618038297
 20
181.3147901392
 10
111.4130265713
 20
181.3399999237
  0
LINE
  5
20F
330
1F
100
AcDbEntity
  8
0
  6
Continuous
 62
     7
370
    25
100
AcDbLine
 10
87.6999996305
 20
181.3050000763
 30
0.0
 11
91.299999848
 21
181.3050000763
 31
0.0
  0
LWPOLYLINE
  5
210
330
1F
100
AcDbEntity
  8
0
  6
Continuous
 62
     7
370
    25
100
AcDbPolyline
 90
        3
 70
   128
 43
0.0
 10
91.299999848
 20
181.3050000763
 10
91.3618035316
 20
181.3147901392
 10
91.4130264595
 20
181.3399999237
  0
LWPOLYLINE
  5
211
330
1F
100
AcDbEntity
  8
0
  6
Continuous
 62
     7
370
    25
100
AcDbPolyline
 90
        3
 70
   128
 43
0.0
 10
87.5869735777
 20
181.3399999237
 10
87.6381963193
 20
181.3147901392
 10
87.6999996305
 20
181.3050000763
  0
LINE
  5
212
330
1F
100
AcDbEntity
  8
0
  6
Continuous
 62
     7
370
    25
100
AcDbLine
 10
82.6999999285
 20
181.3050000763
 30
0.0
 11
86.2999997735
 21
181.3050000763
 31
0.0
  0
LWPOLYLINE
  5
213
330
1F
100
AcDbEntity
  8
0
  6
Continuous
 62
     7
370
    25
100
AcDbPolyline
 90
        3
 70
   128
 43
0.0
 10
86.2999997735
 20
181.3050000763
 10
86.3618030846
 20
181.3147901392
 10
86.4130265713
 20
181.3399999237
  0
LWPOLYLINE
  5
214
330
1F
100
AcDbEntity
  8
0
  6
Continuous
 62
     7
370
    25
100
AcDbPolyline
 90
        3
 70
   128
 43
0.0
 10
82.5869731307
 20
181.3399999237
 10
82.6381966174
 20
181.3147901392
 10
82.6999999285
 20
181.3050000763
  0
LWPOLYLINE
  5
215
330
1F
100
AcDbEntity
  8
0
  6
Continuous
 62
     7
370
    25
100
AcDbPolyline
 90
        3
 70
   128
 43
0.0
 10
81.3000000715
 20
181.3050000763
 10
81.3618041277
 20
181.3147901392
 10
81.4130268693
 20
181.3399999237
  0
LWPOLYLINE
  5
216
330
1F
100
AcDbEntity
  8
0
  6
Continuous
 62
     7
370
    25
100
AcDbPolyline
 90
        3
 70
   128
 43
0.0
 10
77.5869734287
 20
181.3399999237
 10
77.6381961703
 20
181.3147901392
 10
77.7000002265
 20
181.3050000763
  0
LINE
  5
217
330
1F
100
AcDbEntity
  8
0
  6
Continuous
 62
     7
370
    25
100
AcDbLine
 10
72.3999999166
 20
177.2549985743
 30
0.0
 11
116.6000000834
 21
177.2549985743
 31
0.0
  0
LWPOLYLINE
  5
218
330
1F
100
AcDbEntity
  8
0
  6
Continuous
 62
     7
370
    25
100
AcDbPolyline
 90
        3
 70
   128
 43
0.0
 10
107.5869731307
 20
181.3399999237
 10
107.6381958723
 20
181.3147901392
 10
107.6999999285
 20
181.3050000763
  0
LINE
  5
219
330
1F
100
AcDbEntity
  8
0
  6
Continuous
 62
     7
370
    25
100
AcDbLine
 10
77.7000002265
 20
181.3050000763
 30
0.0
 11
81.3000000715
 21
181.3050000763
 31
0.0
  0
LWPOLYLINE
  5
21A
330
1F
100
AcDbEntity
  8
0
  6
Continuous
 62
     7
370
    25
100
AcDbPolyline
 90
        3
 70
   128
 43
0.0
 10
106.3000000715
 20
181.3050000763
 10
106.3618033826
 20
181.3147901392
 10
106.4130268693
 20
181.3399999237
  0
LINE
  5
21B
330
1F
100
AcDbEntity
  8
0
  6
Continuous
 62
     7
370
    25
100
AcDbLine
 10
102.7000002265
 20
181.3050000763
 30
0.0
 11
106.3000000715
 21
181.3050000763
 31
0.0
  0
LINE
  5
21C
330
1F
100
AcDbEntity
  8
0
  6
Continuous
 62
     7
370
    25
100
AcDbLine
 10
72.141017735
 20
182.5049995279
 30
0.0
 11
72.141017735
 21
272.4900006151
 31
0.0
  0
LINE
  5
21D
330
1F
100
AcDbEntity
  8
0
  6
Continuous
 62
     7
370
    25
100
AcDbLine
 10
72.1299998164
 20
182.5049995279
 30
0.0
 11
72.1299998164
 21
272.4900006151
 31
0.0
  0
LINE
  5
21E
330
1F
100
AcDbEntity
  8
0
  6
Continuous
 62
     7
370
    25
100
AcDbLine
 10
72.1299998164
 20
182.5049995279
 30
0.0
 11
72.141017735
 21
182.5049995279
 31
0.0
  0
LINE
  5
21F
330
1F
100
AcDbEntity
  8
0
  6
Continuous
 62
     7
370
    25
100
AcDbLine
 10
72.1299998164
 20
272.4900006151
 30
0.0
 11
72.141017735
 21
272.4900006151
 31
0.0
  0
LINE
  5
220
330
1F
100
AcDbEntity
  8
0
  6
Continuous
 62
     7
370
    25
100
AcDbLine
 10
72.1840686798
 20
182.5049995279
 30
0.0
 11
72.1840686798
 21
272.4900006151
 31
0.0
  0
LINE
  5
221
330
1F
100
AcDbEntity
  8
0
  6
Continuous
 62
     7
370
    25
100
AcDbLine
 10
72.141017735
 20
182.5049995279
 30
0.0
 11
72.1840686798
 21
182.5049995279
 31
0.0
  0
LINE
  5
222
330
1F
100
AcDbEntity
  8
0
  6
Continuous
 62
     7
370
    25
100
AcDbLine
 10
72.141017735
 20
272.4900006151
 30
0.0
 11
72.1840686798
 21
272.4900006151
 31
0.0
  0
LINE
  5
223
330
1F
100
AcDbEntity
  8
0
  6
Continuous
 62
     7
370
    25
100
AcDbLine
 10
72.1199996471
 20
182.5049995279
 30
0.0
 11
72.1199996471
 21
272.4900006151
 31
0.0
  0
LINE
  5
224
330
1F
100
AcDbEntity
  8
0
  6
Continuous
 62
     7
370
    25
100
AcDbLine
 10
72.1199996471
 20
182.5049995279
 30
0.0
 11
72.1299998164
 21
182.5049995279
 31
0.0
  0
LINE
  5
225
330
1F
100
AcDbEntity
  8
0
  6
Continuous
 62
     7
370
    25
100
AcDbLine
 10
72.1199996471
 20
272.4900006151
 30
0.0
 11
72.1299998164
 21
272.4900006151
 31
0.0
  0
LINE
  5
226
330
1F
100
AcDbEntity
  8
0
  6
Continuous
 62
     7
370
    25
100
AcDbLine
 10
72.0250002742
 20
182.5049995279
 30
0.0
 11
72.0250002742
 21
272.4900006151
 31
0.0
  0
LINE
  5
227
330
1F
100
AcDbEntity
  8
0
  6
Continuous
 62
     7
370
    25
100
AcDbLine
 10
72.0250002742
 20
182.5049995279
 30
0.0
 11
72.1199996471
 21
182.5049995279
 31
0.0
  0
LINE
  5
228
330
1F
100
AcDbEntity
  8
0
  6
Continuous
 62
     7
370
    25
100
AcDbLine
 10
72.0250002742
 20
272.4900006151
 30
0.0
 11
72.1199996471
 21
272.4900006151
 31
0.0
  0
LINE
  5
229
330
1F
100
AcDbEntity
  8
0
  6
Continuous
 62
     7
370
    25
100
AcDbLine
 10
72.1840686798
 20
182.5049995279
 30
0.0
 11
72.1850000024
 21
182.5049995279
 31
0.0
  0
LINE
  5
22A
330
1F
100
AcDbEntity
  8
0
  6
Continuous
 62
     7
370
    25
100
AcDbLine
 10
72.1840686798
 20
272.4900006151
 30
0.0
 11
72.1850000024
 21
272.4900006151
 31
0.0
  0
LINE
  5
22B
330
1F
100
AcDbEntity
  8
0
  6
Continuous
 62
     7
370
    25
100
AcDbLine
 10
73.0686269403
 20
207.1400000548
 30
0.0
 11
73.0686269403
 21
207.5399993753
 31
0.0
  0
LINE
  5
22C
330
1F
100
AcDbEntity
  8
0
  6
Continuous
 62
     7
370
    25
100
AcDbLine
 10
73.0686269403
 20
272.3399995661
 30
0.0
 11
73.0686269403
 21
272.4900006151
 31
0.0
  0
LINE
  5
22D
330
1F
100
AcDbEntity
  8
0
  6
Continuous
 62
     7
370
    25
100
AcDbLine
 10
72.1850000024
 20
182.5049995279
 30
0.0
 11
72.5249997973
 21
182.5049995279
 31
0.0
  0
LINE
  5
22E
330
1F
100
AcDbEntity
  8
0
  6
Continuous
 62
     7
370
    25
100
AcDbLine
 10
72.1850000024
 20
272.4900006151
 30
0.0
 11
73.0686269403
 21
272.4900006151
 31
0.0
  0
LINE
  5
22F
330
1F
100
AcDbEntity
  8
0
  6
Continuous
 62
     7
370
    25
100
AcDbLine
 10
73.082252562
 20
207.1400000548
 30
0.0
 11
73.082252562
 21
207.5399993753
 31
0.0
  0
LINE
  5
230
330
1F
100
AcDbEntity
  8
0
  6
Continuous
 62
     7
370
    25
100
AcDbLine
 10
73.082252562
 20
272.3399995661
 30
0.0
 11
73.082252562
 21
272.4900006151
 31
0.0
  0
LINE
  5
231
330
1F
100
AcDbEntity
  8
0
  6
Continuous
 62
     7
370
    25
100
AcDbLine
 10
73.0686269403
 20
272.4900006151
 30
0.0
 11
73.082252562
 21
272.4900006151
 31
0.0
  0
LINE
  5
232
330
1F
100
AcDbEntity
  8
0
  6
Continuous
 62
     7
370
    25
100
AcDbLine
 10
73.082252562
 20
272.4900006151
 30
0.0
 11
73.0825222731
 21
272.4900006151
 31
0.0
  0
LINE
  5
233
330
1F
100
AcDbEntity
  8
0
  6
Continuous
 62
     7
370
    25
100
AcDbLine
 10
116.858982265
 20
272.4900006151
 30
0.0
 11
116.8700001836
 21
272.4900006151
 31
0.0
  0
LINE
  5
234
330
1F
100
AcDbEntity
  8
0
  6
Continuous
 62
     7
370
    25
100
AcDbLine
 10
116.8700001836
 20
182.5049995279
 30
0.0
 11
116.8700001836
 21
272.4900006151
 31
0.0
  0
LINE
  5
235
330
1F
100
AcDbEntity
  8
0
  6
Continuous
 62
     7
370
    25
100
AcDbLine
 10
116.858982265
 20
182.5049995279
 30
0.0
 11
116.8700001836
 21
182.5049995279
 31
0.0
  0
LINE
  5
236
330
1F
100
AcDbEntity
  8
0
  6
Continuous
 62
     7
370
    25
100
AcDbLine
 10
116.858982265
 20
182.5049995279
 30
0.0
 11
116.858982265
 21
272.4900006151
 31
0.0
  0
LINE
  5
237
330
1F
100
AcDbEntity
  8
0
  6
Continuous
 62
     7
370
    25
100
AcDbLine
 10
116.8159313202
 20
182.5049995279
 30
0.0
 11
116.8159313202
 21
272.4900006151
 31
0.0
  0
LINE
  5
238
330
1F
100
AcDbEntity
  8
0
  6
Continuous
 62
     7
370
    25
100
AcDbLine
 10
116.8159313202
 20
272.4900006151
 30
0.0
 11
116.858982265
 21
272.4900006151
 31
0.0
  0
LINE
  5
239
330
1F
100
AcDbEntity
  8
0
  6
Continuous
 62
     7
370
    25
100
AcDbLine
 10
116.8159313202
 20
182.5049995279
 30
0.0
 11
116.858982265
 21
182.5049995279
 31
0.0
  0
LINE
  5
23A
330
1F
100
AcDbEntity
  8
0
  6
Continuous
 62
     7
370
    25
100
AcDbLine
 10
116.8800003529
 20
182.5049995279
 30
0.0
 11
116.8800003529
 21
272.4900006151
 31
0.0
  0
LINE
  5
23B
330
1F
100
AcDbEntity
  8
0
  6
Continuous
 62
     7
370
    25
100
AcDbLine
 10
116.8700001836
 20
272.4900006151
 30
0.0
 11
116.8800003529
 21
272.4900006151
 31
0.0
  0
LINE
  5
23C
330
1F
100
AcDbEntity
  8
0
  6
Continuous
 62
     7
370
    25
100
AcDbLine
 10
116.8700001836
 20
182.5049995279
 30
0.0
 11
116.8800003529
 21
182.5049995279
 31
0.0
  0
LINE
  5
23D
330
1F
100
AcDbEntity
  8
0
  6
Continuous
 62
     7
370
    25
100
AcDbLine
 10
116.9749997258
 20
182.5049995279
 30
0.0
 11
116.9749997258
 21
272.4900006151
 31
0.0
  0
LINE
  5
23E
330
1F
100
AcDbEntity
  8
0
  6
Continuous
 62
     7
370
    25
100
AcDbLine
 10
116.8800003529
 20
272.4900006151
 30
0.0
 11
116.9749997258
 21
272.4900006151
 31
0.0
  0
LINE
  5
23F
330
1F
100
AcDbEntity
  8
0
  6
Continuous
 62
     7
370
    25
100
AcDbLine
 10
116.8800003529
 20
182.5049995279
 30
0.0
 11
116.9749997258
 21
182.5049995279
 31
0.0
  0
LINE
  5
240
330
1F
100
AcDbEntity
  8
0
  6
Continuous
 62
     7
370
    25
100
AcDbLine
 10
116.8149999976
 20
272.4900006151
 30
0.0
 11
116.8159313202
 21
272.4900006151
 31
0.0
  0
LINE
  5
241
330
1F
100
AcDbEntity
  8
0
  6
Continuous
 62
     7
370
    25
100
AcDbLine
 10
116.8149999976
 20
182.5049995279
 30
0.0
 11
116.8159313202
 21
182.5049995279
 31
0.0
  0
LINE
  5
242
330
1F
100
AcDbEntity
  8
0
  6
Continuous
 62
     7
370
    25
100
AcDbLine
 10
115.9313730597
 20
207.1400000548
 30
0.0
 11
115.9313730597
 21
207.5399993753
 31
0.0
  0
LINE
  5
243
330
1F
100
AcDbEntity
  8
0
  6
Continuous
 62
     7
370
    25
100
AcDbLine
 10
115.9313730597
 20
272.3399995661
 30
0.0
 11
115.9313730597
 21
272.4900006151
 31
0.0
  0
LINE
  5
244
330
1F
100
AcDbEntity
  8
0
  6
Continuous
 62
     7
370
    25
100
AcDbLine
 10
115.917747438
 20
207.1400000548
 30
0.0
 11
115.917747438
 21
207.5399993753
 31
0.0
  0
LINE
  5
245
330
1F
100
AcDbEntity
  8
0
  6
Continuous
 62
     7
370
    25
100
AcDbLine
 10
115.917747438
 20
272.3399995661
 30
0.0
 11
115.917747438
 21
272.4900006151
 31
0.0
  0
LINE
  5
246
330
1F
100
AcDbEntity
  8
0
  6
Continuous
 62
     7
370
    25
100
AcDbLine
 10
115.917747438
 20
272.4900006151
 30
0.0
 11
115.9313730597
 21
272.4900006151
 31
0.0
  0
LINE
  5
247
330
1F
100
AcDbEntity
  8
0
  6
Continuous
 62
     7
370
    25
100
AcDbLine
 10
115.9313730597
 20
272.4900006151
 30
0.0
 11
116.8149999976
 21
272.4900006151
 31
0.0
  0
LINE
  5
248
330
1F
100
AcDbEntity
  8
0
  6
Continuous
 62
     7
370
    25
100
AcDbLine
 10
116.4750002027
 20
182.5049995279
 30
0.0
 11
116.8149999976
 21
182.5049995279
 31
0.0
  0
LINE
  5
249
330
1F
100
AcDbEntity
  8
0
  6
Continuous
 62
     7
370
    25
100
AcDbLine
 10
115.917747438
 20
272.4900006151
 30
0.0
 11
115.9174777269
 21
272.4900006151
 31
0.0
  0
LINE
  5
24A
330
1F
100
AcDbEntity
  8
0
  6
Continuous
 62
     7
370
    25
100
AcDbLine
 10
72.3500005603
 20
182.2549997663
 30
0.0
 11
72.5249997973
 21
182.2549997663
 31
0.0
  0
LINE
  5
24B
330
1F
100
AcDbEntity
  8
0
  6
Continuous
 62
     7
370
    25
100
AcDbLine
 10
116.4750002027
 20
182.2549997663
 30
0.0
 11
116.6499994397
 21
182.2549997663
 31
0.0
  0
LINE
  5
24C
330
1F
100
AcDbEntity
  8
0
  6
Continuous
 62
     7
370
    25
100
AcDbLine
 10
72.3500005603
 20
272.7400003767
 30
0.0
 11
72.3500005603
 21
272.4900006151
 31
0.0
  0
LINE
  5
24D
330
1F
100
AcDbEntity
  8
0
  6
Continuous
 62
     7
370
    25
100
AcDbLine
 10
72.3500005603
 20
182.5049995279
 30
0.0
 11
72.3500005603
 21
182.2549997663
 31
0.0
  0
LINE
  5
24E
330
1F
100
AcDbEntity
  8
0
  6
Continuous
 62
     7
370
    25
100
AcDbLine
 10
116.6499994397
 20
272.7400003767
 30
0.0
 11
116.6499994397
 21
272.4900006151
 31
0.0
  0
LINE
  5
24F
330
1F
100
AcDbEntity
  8
0
  6
Continuous
 62
     7
370
    25
100
AcDbLine
 10
116.6499994397
 20
182.5049995279
 30
0.0
 11
116.6499994397
 21
182.2549997663
 31
0.0
  0
LINE
  5
250
330
1F
100
AcDbEntity
  8
0
  6
Continuous
 62
     7
370
    25
100
AcDbLine
 10
72.6584993005
 20
176.4899997807
 30
0.0
 11
74.391499877
 21
176.4899997807
 31
0.0
  0
LINE
  5
251
330
1F
100
AcDbEntity
  8
0
  6
Continuous
 62
     7
370
    25
100
AcDbLine
 10
116.3415006995
 20
176.4899997807
 30
0.0
 11
114.608500123
 21
176.4899997807
 31
0.0
  0
LINE
  5
252
330
1F
100
AcDbEntity
  8
0
  6
Continuous
 62
     7
370
    25
100
AcDbLine
 10
72.3600007296
 20
182.2450010872
 30
0.0
 11
72.3600007296
 21
182.2549997663
 31
0.0
  0
LINE
  5
253
330
1F
100
AcDbEntity
  8
0
  6
Continuous
 62
     7
370
    25
100
AcDbLine
 10
116.6499994397
 20
178.1049995518
 30
0.0
 11
116.6499994397
 21
182.2450010872
 31
0.0
  0
LINE
  5
254
330
1F
100
AcDbEntity
  8
0
  6
Continuous
 62
     7
370
    25
100
AcDbLine
 10
72.3500005603
 20
178.1049995518
 30
0.0
 11
72.3999999166
 21
178.1049995518
 31
0.0
  0
LINE
  5
255
330
1F
100
AcDbEntity
  8
0
  6
Continuous
 62
     7
370
    25
100
AcDbLine
 10
72.3500005603
 20
178.1049995518
 30
0.0
 11
72.3500005603
 21
182.2450010872
 31
0.0
  0
LINE
  5
256
330
1F
100
AcDbEntity
  8
0
  6
Continuous
 62
     7
370
    25
100
AcDbLine
 10
72.3500005603
 20
182.2450010872
 30
0.0
 11
72.3600007296
 21
182.2450010872
 31
0.0
  0
LINE
  5
257
330
1F
100
AcDbEntity
  8
0
  6
Continuous
 62
     7
370
    25
100
AcDbLine
 10
116.6000000834
 20
178.1049995518
 30
0.0
 11
116.6499994397
 21
178.1049995518
 31
0.0
  0
LINE
  5
258
330
1F
100
AcDbEntity
  8
0
  6
Continuous
 62
     7
370
    25
100
AcDbLine
 10
116.6399992704
 20
182.2450010872
 30
0.0
 11
116.6499994397
 21
182.2450010872
 31
0.0
  0
LINE
  5
259
330
1F
100
AcDbEntity
  8
0
  6
Continuous
 62
     7
370
    25
100
AcDbLine
 10
116.6399992704
 20
182.2549997663
 30
0.0
 11
116.6399992704
 21
182.2450010872
 31
0.0
  0
LINE
  5
25A
330
1F
100
AcDbEntity
  8
0
  6
Continuous
 62
     7
370
    25
100
AcDbLine
 10
116.0589150786
 20
177.0265011883
 30
0.0
 11
114.8910857439
 21
177.0265011883
 31
0.0
  0
LINE
  5
25B
330
1F
100
AcDbEntity
  8
0
  6
Continuous
 62
     7
370
    25
100
AcDbLine
 10
72.9410849214
 20
177.0265011883
 30
0.0
 11
74.1089142561
 21
177.0265011883
 31
0.0
  0
LINE
  5
25C
330
1F
100
AcDbEntity
  8
0
  6
Continuous
 62
     7
370
    25
100
AcDbLine
 10
115.8906928897
 20
177.1874992943
 30
0.0
 11
115.0593079329
 21
177.1874992943
 31
0.0
  0
LINE
  5
25D
330
1F
100
AcDbEntity
  8
0
  6
Continuous
 62
     7
370
    25
100
AcDbLine
 10
73.1093071103
 20
177.1874992943
 30
0.0
 11
73.9406920671
 21
177.1874992943
 31
0.0
  0
LINE
  5
25E
330
1F
100
AcDbEntity
  8
0
  6
Continuous
 62
     7
370
    25
100
AcDbLine
 10
116.6000000834
 20
177.4049996233
 30
0.0
 11
116.6499994397
 21
177.4049996233
 31
0.0
  0
LINE
  5
25F
330
1F
100
AcDbEntity
  8
0
  6
Continuous
 62
     7
370
    25
100
AcDbLine
 10
116.6499994397
 20
177.4049996233
 30
0.0
 11
116.6499994397
 21
178.1049995518
 31
0.0
  0
LINE
  5
260
330
1F
100
AcDbEntity
  8
0
  6
Continuous
 62
     7
370
    25
100
AcDbLine
 10
72.3500005603
 20
177.4049996233
 30
0.0
 11
72.3999999166
 21
177.4049996233
 31
0.0
  0
LINE
  5
261
330
1F
100
AcDbEntity
  8
0
  6
Continuous
 62
     7
370
    25
100
AcDbLine
 10
72.3500005603
 20
177.4049996233
 30
0.0
 11
72.3500005603
 21
178.1049995518
 31
0.0
  0
LINE
  5
262
330
1F
100
AcDbEntity
  8
0
  6
Continuous
 62
     7
370
    25
100
AcDbLine
 10
74.0375004411
 20
177.2549985743
 30
0.0
 11
74.0375004411
 21
177.0265011883
 31
0.0
  0
LINE
  5
263
330
1F
100
AcDbEntity
  8
0
  6
Continuous
 62
     7
370
    25
100
AcDbLine
 10
73.0125002265
 20
177.2549985743
 30
0.0
 11
73.0125002265
 21
177.0265011883
 31
0.0
  0
LINE
  5
264
330
1F
100
AcDbEntity
  8
0
  6
Continuous
 62
     7
370
    25
100
AcDbLine
 10
114.9624995589
 20
177.2549985743
 30
0.0
 11
114.9624995589
 21
177.0265011883
 31
0.0
  0
LINE
  5
265
330
1F
100
AcDbEntity
  8
0
  6
Continuous
 62
     7
370
    25
100
AcDbLine
 10
115.9874997735
 20
177.2549985743
 30
0.0
 11
115.9874997735
 21
177.0265011883
 31
0.0
  0
LINE
  5
266
330
1F
100
AcDbEntity
  8
0
  6
Continuous
 62
     8
370
    25
100
AcDbLine
 10
116.4164997339
 20
176.6596405602
 30
0.0
 11
114.5334995985
 21
176.6596405602
 31
0.0
  0
LINE
  5
267
330
1F
100
AcDbEntity
  8
0
  6
Continuous
 62
     8
370
    25
100
AcDbLine
 10
116.3953818083
 20
176.7118095255
 30
0.0
 11
114.5546175241
 21
176.7118095255
 31
0.0
  0
LINE
  5
268
330
1F
100
AcDbEntity
  8
0
  6
Continuous
 62
     8
370
    25
100
AcDbLine
 10
72.5835002661
 20
176.5650003052
 30
0.0
 11
74.4665004015
 21
176.5650003052
 31
0.0
  0
LINE
  5
269
330
1F
100
AcDbEntity
  8
0
  6
Continuous
 62
     8
370
    25
100
AcDbLine
 10
72.5835002661
 20
176.6596405602
 30
0.0
 11
74.4665004015
 21
176.6596405602
 31
0.0
  0
LINE
  5
26A
330
1F
100
AcDbEntity
  8
0
  6
Continuous
 62
     8
370
    25
100
AcDbLine
 10
72.6046181917
 20
176.7118095255
 30
0.0
 11
74.4453824759
 21
176.7118095255
 31
0.0
  0
LINE
  5
26B
330
1F
100
AcDbEntity
  8
0
  6
Continuous
 62
     8
370
    25
100
AcDbLine
 10
116.4164997339
 20
176.5650003052
 30
0.0
 11
114.5334995985
 21
176.5650003052
 31
0.0
  0
LINE
  5
26C
330
1F
100
AcDbEntity
  8
0
  6
Continuous
 62
     8
370
    25
100
AcDbLine
 10
72.8872038126
 20
177.0036696291
 30
0.0
 11
74.162796855
 21
177.0036696291
 31
0.0
  0
LINE
  5
26D
330
1F
100
AcDbEntity
  8
0
  6
Continuous
 62
     8
370
    25
100
AcDbLine
 10
116.1127961874
 20
177.0036696291
 30
0.0
 11
114.837203145
 21
177.0036696291
 31
0.0
  0
LINE
  5
26E
330
1F
100
AcDbEntity
  8
0
  6
Continuous
 62
     7
370
    25
100
AcDbLine
 10
75.0250003934
 20
93.4900003815
 30
0.0
 11
113.9749996066
 21
93.4900003815
 31
0.0
  0
LINE
  5
26F
330
1F
100
AcDbEntity
  8
0
  6
Continuous
 62
     7
370
    25
100
AcDbLine
 10
76.9000000954
 20
94.9900004411
 30
0.0
 11
76.525000453
 21
94.9900004411
 31
0.0
  0
LINE
  5
270
330
1F
100
AcDbEntity
  8
0
  6
Continuous
 62
     7
370
    25
100
AcDbLine
 10
75.275000155
 20
94.9900004411
 30
0.0
 11
75.0250003934
 21
94.9900004411
 31
0.0
  0
LINE
  5
271
330
1F
100
AcDbEntity
  8
0
  6
Continuous
 62
     7
370
    25
100
AcDbLine
 10
110.8499996066
 20
94.9900004411
 30
0.0
 11
78.148557961
 21
94.9900004411
 31
0.0
  0
LINE
  5
272
330
1F
100
AcDbEntity
  8
0
  6
Continuous
 62
     7
370
    25
100
AcDbLine
 10
113.9749996066
 20
94.9900004411
 30
0.0
 11
112.0985574722
 21
94.9900004411
 31
0.0
  0
LINE
  5
273
330
1F
100
AcDbEntity
  8
0
  6
Continuous
 62
     7
370
    25
100
AcDbLine
 10
110.8499996066
 20
96.4399996543
 30
0.0
 11
110.8499996066
 21
94.9900004411
 31
0.0
  0
LINE
  5
274
330
1F
100
AcDbEntity
  8
0
  6
Continuous
 62
     7
370
    25
100
AcDbLine
 10
112.0999999046
 20
94.9887994075
 30
0.0
 11
112.0999999046
 21
96.4399996543
 31
0.0
  0
LINE
  5
275
330
1F
100
AcDbEntity
  8
0
  6
Continuous
 62
     7
370
    25
100
AcDbLine
 10
76.9000000954
 20
96.4399996543
 30
0.0
 11
76.9000000954
 21
94.9900004411
 31
0.0
  0
LINE
  5
276
330
1F
100
AcDbEntity
  8
0
  6
Continuous
 62
     7
370
    25
100
AcDbLine
 10
78.1500003934
 20
94.9887994075
 30
0.0
 11
78.1500003934
 21
96.4399996543
 31
0.0
  0
LINE
  5
277
330
1F
100
AcDbEntity
  8
0
  6
Continuous
 62
     7
370
    25
100
AcDbLine
 10
75.275000155
 20
96.4399996543
 30
0.0
 11
75.275000155
 21
94.6545782828
 31
0.0
  0
LINE
  5
278
330
1F
100
AcDbEntity
  8
0
  6
Continuous
 62
     7
370
    25
100
AcDbLine
 10
76.525000453
 20
94.6582320476
 30
0.0
 11
76.525000453
 21
96.4399996543
 31
0.0
  0
LINE
  5
279
330
1F
100
AcDbEntity
  8
0
  6
Continuous
 62
     7
370
    25
100
AcDbLine
 10
72.5249997973
 20
96.4399996543
 30
0.0
 11
116.4750002027
 21
96.4399996543
 31
0.0
  0
LINE
  5
27A
330
1F
100
AcDbEntity
  8
0
  6
Continuous
 62
     7
370
    25
100
AcDbLine
 10
72.5249997973
 20
96.4399996543
 30
0.0
 11
72.5249997973
 21
99.8899999404
 31
0.0
  0
LINE
  5
27B
330
1F
100
AcDbEntity
  8
0
  6
Continuous
 62
     7
370
    25
100
AcDbLine
 10
116.4750002027
 20
99.8899999404
 30
0.0
 11
72.5249997973
 21
99.8899999404
 31
0.0
  0
LINE
  5
27C
330
1F
100
AcDbEntity
  8
0
  6
Continuous
 62
     7
370
    25
100
AcDbLine
 10
116.4750002027
 20
96.4399996543
 30
0.0
 11
116.4750002027
 21
99.8899999404
 31
0.0
  0
SPLINE
  5
27D
330
1F
100
AcDbEntity
  8
0
  6
Continuous
 62
     7
370
    25
100
AcDbSpline
210
0.0
220
0.0
230
1.0
 70
     8
 71
     3
 72
    23
 73
    19
 74
     0
 42
0.000000001
 43
0.00000001
 40
0.0
 40
0.0
 40
0.0
 40
0.0
 40
0.0847278238301138
 40
0.1690971393692745
 40
0.226215819956505
 40
0.2849765661091427
 40
0.3432009562028188
 40
0.4029900659604064
 40
0.4672124627457595
 40
0.5320102824871364
 40
0.6024269487471596
 40
0.6579469815317259
 40
0.7149580615114979
 40
0.77333637432419
 40
0.833337634120011
 40
0.9223590647880014
 40
0.9665038364020992
 40
0.9999999999999999
 40
0.9999999999999999
 40
0.9999999999999999
 40
0.9999999999999999
 10
76.90000009536745
 20
94.99000044107436
 30
0.0
 10
76.90500865438243
 20
94.98580219771623
 30
0.0
 10
76.91500457972916
 20
94.9774234749998
 30
0.0
 10
76.98045974332561
 20
94.92388716985101
 30
0.0
 10
77.05611755208683
 20
94.86529114561417
 30
0.0
 10
77.13469362599942
 20
94.80830569166406
 30
0.0
 10
77.22546473172507
 20
94.7495277789182
 30
0.0
 10
77.33084325503782
 20
94.69399432505426
 30
0.0
 10
77.45514570634407
 20
94.65317430950768
 30
0.0
 10
77.59809599678516
 20
94.6529656368949
 30
0.0
 10
77.72333595283101
 20
94.69586898403693
 30
0.0
 10
77.8282890695288
 20
94.75192503092308
 30
0.0
 10
77.91596811635532
 20
94.80879517202291
 30
0.0
 10
77.99495220513047
 20
94.86605330615471
 30
0.0
 10
78.07371490372232
 20
94.92720324836645
 30
0.0
 10
78.12491318384814
 20
94.96915001583504
 30
0.0
 10
78.14792256708516
 20
94.98826749064057
 30
0.0
 10
78.14836645645516
 20
94.98863804941406
 30
0.0
 10
78.1485579609871
 20
94.98879791736603
 30
0.0
  0
SPLINE
  5
27E
330
1F
100
AcDbEntity
  8
0
  6
Continuous
 62
     7
370
    25
100
AcDbSpline
210
0.0
220
0.0
230
1.0
 70
     8
 71
     3
 72
    23
 73
    19
 74
     0
 42
0.000000001
 43
0.00000001
 40
0.0
 40
0.0
 40
0.0
 40
0.0
 40
0.012296829288374
 40
0.0911704722490751
 40
0.1711912029192714
 40
0.2286036396513912
 40
0.2876671445587646
 40
0.3461432176367805
 40
0.4062282048053937
 40
0.4698572624091492
 40
0.5340285491816238
 40
0.6052652509257952
 40
0.6614962055935424
 40
0.719244089894579
 40
0.7781600605078495
 40
0.8387779426551554
 40
0.9269079425428949
 40
1.0
 40
1.0
 40
1.0
 40
1.0
 10
112.098557472229
 20
94.98879791736603
 30
0.0
 10
112.0989629067732
 20
94.98913595009542
 30
0.0
 10
112.1019688571685
 20
94.99164217367971
 30
0.0
 10
112.0761989201031
 20
94.97011677218204
 30
0.0
 10
112.0165334480012
 20
94.92154611557876
 30
0.0
 10
111.9409305460303
 20
94.86304985234418
 30
0.0
 10
111.8617086775451
 20
94.80581078945869
 30
0.0
 10
111.769942218867
 20
94.74678377996348
 30
0.0
 10
111.6639861963619
 20
94.69171921400107
 30
0.0
 10
111.5395945288438
 20
94.6523877924961
 30
0.0
 10
111.3970230207634
 20
94.65389857405822
 30
0.0
 10
111.271773995391
 20
94.69801334543
 30
0.0
 10
111.1661586423708
 20
94.75523609310675
 30
0.0
 10
111.0781911455139
 20
94.81283331723654
 30
0.0
 10
110.9990761460528
 20
94.87057028558038
 30
0.0
 10
110.92224564334
 20
94.93044632147976
 30
0.0
 10
110.8619773842003
 20
94.97997872529764
 30
0.0
 10
110.8537359603012
 20
94.98687426224392
 30
0.0
 10
110.8499996066093
 20
94.99000044107436
 30
0.0
  0
LINE
  5
27F
330
1F
100
AcDbEntity
  8
0
  6
Continuous
 62
     7
370
    25
100
AcDbLine
 10
113.9749996066
 20
94.2399996662
 30
0.0
 11
113.9749996066
 21
93.4900003815
 31
0.0
  0
LINE
  5
280
330
1F
100
AcDbEntity
  8
0
  6
Continuous
 62
     7
370
    25
100
AcDbLine
 10
113.9749996066
 20
94.9900004411
 30
0.0
 11
113.9749996066
 21
94.2399996662
 31
0.0
  0
LINE
  5
281
330
1F
100
AcDbEntity
  8
0
  6
Continuous
 62
     7
370
    25
100
AcDbLine
 10
75.0250003934
 20
94.9900004411
 30
0.0
 11
75.0250003934
 21
93.4900003815
 31
0.0
  0
CIRCLE
  5
282
330
1F
100
AcDbEntity
  8
0
  6
Continuous
 62
     7
370
    25
100
AcDbCircle
 10
75.9000000325
 20
94.24
 30
0.0
 40
0.75
  0
LINE
  5
283
330
1F
100
AcDbEntity
  8
0
  6
Continuous
 62
     7
370
    25
100
AcDbLine
 10
72.3500005603
 20
99.8899999404
 30
0.0
 11
116.6499994397
 21
99.8899999404
 31
0.0
  0
LINE
  5
284
330
1F
100
AcDbEntity
  8
0
  6
Continuous
 62
     7
370
    25
100
AcDbLine
 10
72.3500005603
 20
125.8899997318
 30
0.0
 11
72.3500005603
 21
99.8899999404
 31
0.0
  0
LINE
  5
285
330
1F
100
AcDbEntity
  8
0
  6
Continuous
 62
     7
370
    25
100
AcDbLine
 10
116.6499994397
 20
125.8899997318
 30
0.0
 11
72.3500005603
 21
125.8899997318
 31
0.0
  0
LINE
  5
286
330
1F
100
AcDbEntity
  8
0
  6
Continuous
 62
     7
370
    25
100
AcDbLine
 10
116.6499994397
 20
99.8899999404
 30
0.0
 11
116.6499994397
 21
125.8899997318
 31
0.0
  0
LINE
  5
287
330
1F
100
AcDbEntity
  8
0
  6
Continuous
 62
     7
370
    25
100
AcDbLine
 10
72.2750000358
 20
101.39
 30
0.0
 11
72.2750000358
 21
99.9149996185
 31
0.0
  0
LINE
  5
288
330
1F
100
AcDbEntity
  8
0
  6
Continuous
 62
     7
370
    25
100
AcDbLine
 10
72.3500005603
 20
101.39
 30
0.0
 11
72.2750000358
 21
101.39
 31
0.0
  0
LINE
  5
289
330
1F
100
AcDbEntity
  8
0
  6
Continuous
 62
     7
370
    25
100
AcDbLine
 10
72.3500005603
 20
99.8650002623
 30
0.0
 11
72.3500005603
 21
99.8899999404
 31
0.0
  0
ARC
  5
28A
330
1F
100
AcDbEntity
  8
0
  6
Continuous
 62
     7
370
    25
100
AcDbCircle
 10
72.3990734406
 20
99.8745810737
 30
0.0
 40
0.049999995000013
100
AcDbArc
 50
191.0474249458
 51
271.0618139955
  0
LINE
  5
28B
330
1F
100
AcDbEntity
  8
0
  6
Continuous
 62
     7
370
    25
100
AcDbLine
 10
72.5000001192
 20
99.8245898032
 30
0.0
 11
72.3999999166
 21
99.8245898032
 31
0.0
  0
ARC
  5
28C
330
1F
100
AcDbEntity
  8
0
  6
Continuous
 62
     7
370
    25
100
AcDbCircle
 10
72.5009265344
 20
99.8745810737
 30
0.0
 40
0.0499999950000134
100
AcDbArc
 50
268.9381860046
 51
298.7814548012
  0
LINE
  5
28D
330
1F
100
AcDbEntity
  8
0
  6
Continuous
 62
     7
370
    25
100
AcDbLine
 10
72.175409615
 20
99.7645902777
 30
0.0
 11
72.5249997973
 21
99.7645902777
 31
0.0
  0
ARC
  5
28E
330
1F
100
AcDbEntity
  8
0
  6
Continuous
 62
     7
370
    25
100
AcDbCircle
 10
72.174998323
 20
99.714591364
 30
0.0
 40
0.0499999950000004
100
AcDbArc
 50
89.5282858826
 51
179.5282859575
  0
LINE
  5
28F
330
1F
100
AcDbEntity
  8
0
  6
Continuous
 62
     7
370
    25
100
AcDbLine
 10
72.1250004768
 20
98.9652040744
 30
0.0
 11
72.1250004768
 21
99.7150036836
 31
0.0
  0
ARC
  5
290
330
1F
100
AcDbEntity
  8
0
  6
Continuous
 62
     7
370
    25
100
AcDbCircle
 10
72.1750000175
 20
98.9652038215
 30
0.0
 40
0.0499999950000074
100
AcDbArc
 50
179.9999999504
 51
258.4630409672
  0
ARC
  5
291
330
1F
100
AcDbEntity
  8
0
  6
Continuous
 62
     7
370
    25
100
AcDbCircle
 10
72.1600000166
 20
98.891719137
 30
0.0
 40
0.0249999975000148
100
AcDbArc
 50
344.3090402466
 51
78.4630354664
  0
ARC
  5
292
330
1F
100
AcDbEntity
  8
0
  6
Continuous
 62
     7
370
    25
100
AcDbCircle
 10
72.1359316619
 20
98.8984803628
 30
0.0
 40
0.049999994999991
100
AcDbArc
 50
275.8375897921
 51
344.3090250343
  0
ARC
  5
293
330
1F
100
AcDbEntity
  8
0
  6
Continuous
 62
     7
370
    25
100
AcDbCircle
 10
72.140000021
 20
98.858687799
 30
0.0
 40
0.0099999990000015
100
AcDbArc
 50
180.0
 51
275.8375885099
  0
LINE
  5
294
330
1F
100
AcDbEntity
  8
0
  6
Continuous
 62
     7
370
    25
100
AcDbLine
 10
72.1299998164
 20
98.8652038717
 30
0.0
 11
72.1299998164
 21
98.8586875939
 31
0.0
  0
ARC
  5
295
330
1F
100
AcDbEntity
  8
0
  6
Continuous
 62
     7
370
    25
100
AcDbCircle
 10
72.120000023
 20
98.8652038315
 30
0.0
 40
0.0099999990000157
100
AcDbArc
 50
0.0
 51
90.0
  0
LINE
  5
296
330
1F
100
AcDbEntity
  8
0
  6
Continuous
 62
     7
370
    25
100
AcDbLine
 10
72.0250002742
 20
98.875204041
 30
0.0
 11
72.1199996471
 21
98.875204041
 31
0.0
  0
LINE
  5
297
330
1F
100
AcDbEntity
  8
0
  6
Continuous
 62
     7
370
    25
100
AcDbLine
 10
72.0250002742
 20
99.8650002623
 30
0.0
 11
72.0250002742
 21
98.875204041
 31
0.0
  0
LINE
  5
298
330
1F
100
AcDbEntity
  8
0
  6
Continuous
 62
     7
370
    25
100
AcDbLine
 10
72.2250006795
 20
99.8650002623
 30
0.0
 11
72.0250002742
 21
99.8650002623
 31
0.0
  0
ARC
  5
299
330
1F
100
AcDbEntity
  8
0
  6
Continuous
 62
     7
370
    25
100
AcDbCircle
 10
72.2250000125
 20
99.9149999975
 30
0.0
 40
0.0499999950000074
100
AcDbArc
 50
270.0
 51
0.0
  0
LINE
  5
29A
330
1F
100
AcDbEntity
  8
0
  6
Continuous
 62
     7
370
    25
100
AcDbLine
 10
116.9749997258
 20
99.8650002623
 30
0.0
 11
116.7749993205
 21
99.8650002623
 31
0.0
  0
LINE
  5
29B
330
1F
100
AcDbEntity
  8
0
  6
Continuous
 62
     7
370
    25
100
AcDbLine
 10
116.9749997258
 20
98.875204041
 30
0.0
 11
116.9749997258
 21
99.8650002623
 31
0.0
  0
LINE
  5
29C
330
1F
100
AcDbEntity
  8
0
  6
Continuous
 62
     7
370
    25
100
AcDbLine
 10
116.8800003529
 20
98.875204041
 30
0.0
 11
116.9749997258
 21
98.875204041
 31
0.0
  0
ARC
  5
29D
330
1F
100
AcDbEntity
  8
0
  6
Continuous
 62
     7
370
    25
100
AcDbCircle
 10
116.879999977
 20
98.8652038315
 30
0.0
 40
0.0099999990000157
100
AcDbArc
 50
90.0
 51
180.0
  0
LINE
  5
29E
330
1F
100
AcDbEntity
  8
0
  6
Continuous
 62
     7
370
    25
100
AcDbLine
 10
116.8700001836
 20
98.8586875939
 30
0.0
 11
116.8700001836
 21
98.8652038717
 31
0.0
  0
ARC
  5
29F
330
1F
100
AcDbEntity
  8
0
  6
Continuous
 62
     7
370
    25
100
AcDbCircle
 10
116.859999979
 20
98.858687799
 30
0.0
 40
0.0099999989999873
100
AcDbArc
 50
264.1624114901
 51
0.0
  0
ARC
  5
2A0
330
1F
100
AcDbEntity
  8
0
  6
Continuous
 62
     7
370
    25
100
AcDbCircle
 10
116.8640683381
 20
98.8984803628
 30
0.0
 40
0.0499999950000047
100
AcDbArc
 50
195.6909749657
 51
264.1624102079
  0
ARC
  5
2A1
330
1F
100
AcDbEntity
  8
0
  6
Continuous
 62
     7
370
    25
100
AcDbCircle
 10
116.8399999834
 20
98.891719137
 30
0.0
 40
0.0249999975000148
100
AcDbArc
 50
101.5369645336
 51
195.6909597534
  0
ARC
  5
2A2
330
1F
100
AcDbEntity
  8
0
  6
Continuous
 62
     7
370
    25
100
AcDbCircle
 10
116.8249999825
 20
98.9652038215
 30
0.0
 40
0.0499999950000074
100
AcDbArc
 50
281.5369590328
 51
0.0000000496
  0
LINE
  5
2A3
330
1F
100
AcDbEntity
  8
0
  6
Continuous
 62
     7
370
    25
100
AcDbLine
 10
116.8749995232
 20
99.7150036836
 30
0.0
 11
116.8749995232
 21
98.9652040744
 31
0.0
  0
ARC
  5
2A4
330
1F
100
AcDbEntity
  8
0
  6
Continuous
 62
     7
370
    25
100
AcDbCircle
 10
116.825001677
 20
99.714591364
 30
0.0
 40
0.0499999950000003
100
AcDbArc
 50
0.4717140425
 51
90.4717141174
  0
LINE
  5
2A5
330
1F
100
AcDbEntity
  8
0
  6
Continuous
 62
     7
370
    25
100
AcDbLine
 10
116.4750002027
 20
99.7645902777
 30
0.0
 11
116.824590385
 21
99.7645902777
 31
0.0
  0
ARC
  5
2A6
330
1F
100
AcDbEntity
  8
0
  6
Continuous
 62
     7
370
    25
100
AcDbCircle
 10
116.4990734656
 20
99.8745810737
 30
0.0
 40
0.0499999950000134
100
AcDbArc
 50
241.2185451989
 51
271.0618139954
  0
LINE
  5
2A7
330
1F
100
AcDbEntity
  8
0
  6
Continuous
 62
     7
370
    25
100
AcDbLine
 10
116.6000000834
 20
99.8245898032
 30
0.0
 11
116.4999998808
 21
99.8245898032
 31
0.0
  0
ARC
  5
2A8
330
1F
100
AcDbEntity
  8
0
  6
Continuous
 62
     7
370
    25
100
AcDbCircle
 10
116.6009265594
 20
99.8745810737
 30
0.0
 40
0.049999995000013
100
AcDbArc
 50
268.9381860045
 51
348.9525750542
  0
ARC
  5
2A9
330
1F
100
AcDbEntity
  8
0
  6
Continuous
 62
     7
370
    25
100
AcDbCircle
 10
116.7749999875
 20
99.9149999975
 30
0.0
 40
0.0499999950000074
100
AcDbArc
 50
180.0
 51
270.0
  0
LINE
  5
2AA
330
1F
100
AcDbEntity
  8
0
  6
Continuous
 62
     7
370
    25
100
AcDbLine
 10
116.6499994397
 20
99.8899999404
 30
0.0
 11
116.6499994397
 21
99.8650002623
 31
0.0
  0
LINE
  5
2AB
330
1F
100
AcDbEntity
  8
0
  6
Continuous
 62
     7
370
    25
100
AcDbLine
 10
116.7249999642
 20
99.9149996185
 30
0.0
 11
116.7249999642
 21
101.39
 31
0.0
  0
LINE
  5
2AC
330
1F
100
AcDbEntity
  8
0
  6
Continuous
 62
     7
370
    25
100
AcDbLine
 10
116.7249999642
 20
101.39
 30
0.0
 11
116.6499994397
 21
101.39
 31
0.0
  0
LINE
  5
2AD
330
1F
100
AcDbEntity
  8
0
  6
Continuous
 62
     7
370
    25
100
AcDbLine
 10
116.6499994397
 20
127.8900000596
 30
0.0
 11
72.3500005603
 21
127.8900000596
 31
0.0
  0
LINE
  5
2AE
330
1F
100
AcDbEntity
  8
0
  6
Continuous
 62
     7
370
    25
100
AcDbLine
 10
72.3500005603
 20
127.8900000596
 30
0.0
 11
72.3500005603
 21
125.8899997318
 31
0.0
  0
LINE
  5
2AF
330
1F
100
AcDbEntity
  8
0
  6
Continuous
 62
     7
370
    25
100
AcDbLine
 10
116.6499994397
 20
127.8900000596
 30
0.0
 11
116.6499994397
 21
125.8899997318
 31
0.0
  0
LINE
  5
2B0
330
1F
100
AcDbEntity
  8
0
  6
Continuous
 62
     7
370
    25
100
AcDbLine
 10
255.7500003457
 20
204.0150000548
 30
0.0
 11
257.530042398
 21
204.0150000548
 31
0.0
  0
LINE
  5
2B1
330
1F
100
AcDbEntity
  8
0
  6
Continuous
 62
     7
370
    25
100
AcDbLine
 10
257.5299172282
 20
205.2650003529
 30
0.0
 11
255.7500003457
 21
205.2650003529
 31
0.0
  0
LINE
  5
2B2
330
1F
100
AcDbEntity
  8
0
  6
Continuous
 62
     7
370
    25
100
AcDbLine
 10
257.530042398
 20
205.2650003529
 30
0.0
 11
257.5299172282
 21
205.2650003529
 31
0.0
  0
LINE
  5
2B3
330
1F
100
AcDbEntity
  8
0
  6
Continuous
 62
     7
370
    25
100
AcDbLine
 10
257.1999995589
 20
214.421115706
 30
0.0
 11
257.1999995589
 21
212.5400005674
 31
0.0
  0
LINE
  5
2B4
330
1F
100
AcDbEntity
  8
0
  6
Continuous
 62
     7
370
    25
100
AcDbLine
 10
257.1999995589
 20
259.2210112906
 30
0.0
 11
257.1999995589
 21
215.6589879489
 31
0.0
  0
LINE
  5
2B5
330
1F
100
AcDbEntity
  8
0
  6
Continuous
 62
     7
370
    25
100
AcDbLine
 10
257.1999995589
 20
262.3400001621
 30
0.0
 11
257.1999995589
 21
260.4588835335
 31
0.0
  0
LINE
  5
2B6
330
1F
100
AcDbEntity
  8
0
  6
Continuous
 62
     7
370
    25
100
AcDbLine
 10
258.6999996185
 20
212.5400005674
 30
0.0
 11
258.6999996185
 21
262.3400001621
 31
0.0
  0
LINE
  5
2B7
330
1F
100
AcDbEntity
  8
0
  6
Continuous
 62
     7
370
    25
100
AcDbLine
 10
255.7500003457
 20
259.2150001621
 30
0.0
 11
257.2050018787
 21
259.2150001621
 31
0.0
  0
LINE
  5
2B8
330
1F
100
AcDbEntity
  8
0
  6
Continuous
 62
     7
370
    25
100
AcDbLine
 10
257.2050883055
 20
260.46499897
 30
0.0
 11
255.7500003457
 21
260.46499897
 31
0.0
  0
LINE
  5
2B9
330
1F
100
AcDbEntity
  8
0
  6
Continuous
 62
     7
370
    25
100
AcDbLine
 10
255.7500003457
 20
214.4150002694
 30
0.0
 11
257.2050883055
 21
214.4150002694
 31
0.0
  0
LINE
  5
2BA
330
1F
100
AcDbEntity
  8
0
  6
Continuous
 62
     7
370
    25
100
AcDbLine
 10
257.2050018787
 20
215.6649998224
 30
0.0
 11
255.7500003457
 21
215.6649998224
 31
0.0
  0
LINE
  5
2BB
330
1F
100
AcDbEntity
  8
0
  6
Continuous
 62
     7
370
    25
100
AcDbLine
 10
253.3413125753
 20
182.5049995279
 30
0.0
 11
253.3413125753
 21
272.4900006151
 31
0.0
  0
LINE
  5
2BC
330
1F
100
AcDbEntity
  8
0
  6
Continuous
 62
     7
370
    25
100
AcDbLine
 10
250.3865002275
 20
176.5650003052
 30
0.0
 11
250.3865002275
 21
176.6596405602
 31
0.0
  0
LINE
  5
2BD
330
1F
100
AcDbEntity
  8
0
  6
Continuous
 62
     7
370
    25
100
AcDbLine
 10
248.503500092
 20
176.6596405602
 30
0.0
 11
248.503500092
 21
176.5650003052
 31
0.0
  0
ARC
  5
2BE
330
1F
100
AcDbEntity
  8
0
  6
Continuous
 62
     7
370
    25
100
AcDbCircle
 10
250.3115
 20
176.565
 30
0.0
 40
0.0750000000000171
100
AcDbArc
 50
270.0
 51
0.0
  0
ARC
  5
2BF
330
1F
100
AcDbEntity
  8
0
  6
Continuous
 62
     7
370
    25
100
AcDbCircle
 10
248.5785
 20
176.565
 30
0.0
 40
0.0750000000000455
100
AcDbArc
 50
180.0
 51
270.0
  0
ARC
  5
2C0
330
1F
100
AcDbEntity
  8
0
  6
Continuous
 62
     7
370
    25
100
AcDbCircle
 10
250.3115
 20
176.6596408368
 30
0.0
 40
0.0749999999999886
100
AcDbArc
 50
0.0
 51
44.0751062253
  0
ARC
  5
2C1
330
1F
100
AcDbEntity
  8
0
  6
Continuous
 62
     7
370
    25
100
AcDbCircle
 10
248.5785
 20
176.6596408368
 30
0.0
 40
0.0750000000000455
100
AcDbArc
 50
135.9248937747
 51
180.0
  0
LINE
  5
2C2
330
1F
100
AcDbEntity
  8
0
  6
Continuous
 62
     7
370
    25
100
AcDbLine
 10
250.3653823018
 20
176.7118095255
 30
0.0
 11
250.0827966809
 21
177.0036696291
 31
0.0
  0
LINE
  5
2C3
330
1F
100
AcDbEntity
  8
0
  6
Continuous
 62
     7
370
    25
100
AcDbLine
 10
248.8072036386
 20
177.0036696291
 30
0.0
 11
248.5246180177
 21
176.7118095255
 31
0.0
  0
ARC
  5
2C4
330
1F
100
AcDbEntity
  8
0
  6
Continuous
 62
     7
370
    25
100
AcDbCircle
 10
250.0289145804
 20
176.9515
 30
0.0
 40
0.0750000000000171
100
AcDbArc
 50
44.0751062253
 51
90.0
  0
ARC
  5
2C5
330
1F
100
AcDbEntity
  8
0
  6
Continuous
 62
     7
370
    25
100
AcDbCircle
 10
248.8610854196
 20
176.9515
 30
0.0
 40
0.0750000000000171
100
AcDbArc
 50
90.0
 51
135.9248937747
  0
LINE
  5
2C6
330
1F
100
AcDbEntity
  8
0
  6
Continuous
 62
     7
370
    25
100
AcDbLine
 10
249.8606918931
 20
177.0265011883
 30
0.0
 11
249.8606918931
 21
177.1874992943
 31
0.0
  0
LINE
  5
2C7
330
1F
100
AcDbEntity
  8
0
  6
Continuous
 62
     7
370
    25
100
AcDbLine
 10
249.0293076813
 20
177.1874992943
 30
0.0
 11
249.0293076813
 21
177.0265011883
 31
0.0
  0
LINE
  5
2C8
330
1F
100
AcDbEntity
  8
0
  6
Continuous
 62
     7
370
    25
100
AcDbLine
 10
249.6909997046
 20
177.1874992943
 30
0.0
 11
249.6909997046
 21
178.1049995518
 31
0.0
  0
LINE
  5
2C9
330
1F
100
AcDbEntity
  8
0
  6
Continuous
 62
     7
370
    25
100
AcDbLine
 10
249.1989998698
 20
178.1049995518
 30
0.0
 11
249.1989998698
 21
177.1874992943
 31
0.0
  0
LINE
  5
2CA
330
1F
100
AcDbEntity
  8
0
  6
Continuous
 62
     7
370
    25
100
AcDbLine
 10
255.7500003457
 20
272.7400003767
 30
0.0
 11
255.7500003457
 21
282.4900000191
 31
0.0
  0
LINE
  5
2CB
330
1F
100
AcDbEntity
  8
0
  6
Continuous
 62
     7
370
    25
100
AcDbLine
 10
255.7500003457
 20
272.7400003767
 30
0.0
 11
252.3000000596
 21
272.7400003767
 31
0.0
  0
LINE
  5
2CC
330
1F
100
AcDbEntity
  8
0
  6
Continuous
 62
     7
370
    25
100
AcDbLine
 10
255.7500003457
 20
282.4900000191
 30
0.0
 11
252.3000000596
 21
282.4900000191
 31
0.0
  0
LINE
  5
2CD
330
1F
100
AcDbEntity
  8
0
  6
Continuous
 62
     7
370
    25
100
AcDbLine
 10
255.7500003457
 20
207.1400000548
 30
0.0
 11
255.7500003457
 21
181.3399999237
 31
0.0
  0
LINE
  5
2CE
330
1F
100
AcDbEntity
  8
0
  6
Continuous
 62
     7
370
    25
100
AcDbLine
 10
252.7999995828
 20
182.5049995279
 30
0.0
 11
252.7999995828
 21
181.3399999237
 31
0.0
  0
LINE
  5
2CF
330
1F
100
AcDbEntity
  8
0
  6
Continuous
 62
     7
370
    25
100
AcDbLine
 10
255.7500003457
 20
181.3399999237
 30
0.0
 11
252.7999995828
 21
181.3399999237
 31
0.0
  0
LINE
  5
2D0
330
1F
100
AcDbEntity
  8
0
  6
Continuous
 62
     7
370
    25
100
AcDbLine
 10
255.7500003457
 20
207.1400000548
 30
0.0
 11
253.3413125753
 21
207.1400000548
 31
0.0
  0
CIRCLE
  5
2D1
330
1F
100
AcDbEntity
  8
0
  6
Continuous
 62
     7
370
    25
100
AcDbCircle
 10
257.95
 20
204.64
 30
0.0
 40
0.75
  0
LINE
  5
2D2
330
1F
100
AcDbEntity
  8
0
  6
Continuous
 62
     7
370
    25
100
AcDbLine
 10
255.7500003457
 20
272.3399995661
 30
0.0
 11
255.7500003457
 21
207.5399993753
 31
0.0
  0
LINE
  5
2D3
330
1F
100
AcDbEntity
  8
0
  6
Continuous
 62
     7
370
    25
100
AcDbLine
 10
255.7500003457
 20
207.5399993753
 30
0.0
 11
253.3413125753
 21
207.5399993753
 31
0.0
  0
LINE
  5
2D4
330
1F
100
AcDbEntity
  8
0
  6
Continuous
 62
     7
370
    25
100
AcDbLine
 10
255.7500003457
 20
272.3399995661
 30
0.0
 11
253.3413125753
 21
272.3399995661
 31
0.0
  0
SPLINE
  5
2D5
330
1F
100
AcDbEntity
  8
0
  6
Continuous
 62
     7
370
    25
100
AcDbSpline
210
0.0
220
0.0
230
1.0
 70
     8
 71
     3
 72
    16
 73
    12
 74
     0
 42
0.000000001
 43
0.00000001
 40
0.0
 40
0.0
 40
0.0
 40
0.0
 40
0.1262569039018805
 40
0.2133365346680137
 40
0.3027667483737704
 40
0.4286494159781943
 40
0.5581612595538334
 40
0.6573665121501128
 40
0.7591247586145489
 40
0.9245959097880666
 40
1.0
 40
1.0
 40
1.0
 40
1.0
 10
257.5354217171669
 20
215.0399996733665
 30
0.0
 10
257.5311806154343
 20
215.0841792115687
 30
0.0
 10
257.5240144176358
 20
215.1588294626996
 30
0.0
 10
257.4848773096266
 20
215.2540547729836
 30
0.0
 10
257.4394099952682
 20
215.3412557875753
 30
0.0
 10
257.3817828721679
 20
215.4304052567708
 30
0.0
 10
257.3239721114707
 20
215.50982656781
 30
0.0
 10
257.275346899046
 20
215.5725416055135
 30
0.0
 10
257.2315677166696
 20
215.6270374211515
 30
0.0
 10
257.2003384181259
 20
215.6645987150438
 30
0.0
 10
257.2038900640557
 20
215.6603256104949
 30
0.0
 10
257.2050018787384
 20
215.6589879488945
 30
0.0
  0
SPLINE
  5
2D6
330
1F
100
AcDbEntity
  8
0
  6
Continuous
 62
     7
370
    25
100
AcDbSpline
210
0.0
220
0.0
230
1.0
 70
     8
 71
     3
 72
    16
 73
    12
 74
     0
 42
0.000000001
 43
0.00000001
 40
0.0
 40
0.0
 40
0.0
 40
0.0
 40
0.0779577163425138
 40
0.2330771713602418
 40
0.3996269677834068
 40
0.5213008823390218
 40
0.646480090063529
 40
0.7420400438397607
 40
0.8396663204194994
 40
0.9663708497470863
 40
1.0
 40
1.0
 40
1.0
 40
1.0
 10
257.2050883054733
 20
214.4211157059669
 30
0.0
 10
257.2039898394489
 20
214.4197931222569
 30
0.0
 10
257.2007056571279
 20
214.4158388752049
 30
0.0
 10
257.2358290515367
 20
214.4581197403829
 30
0.0
 10
257.2925321715469
 20
214.5288143747904
 30
0.0
 10
257.3581861459463
 20
214.6163212630354
 30
0.0
 10
257.4153681279972
 20
214.7001694759568
 30
0.0
 10
257.4664102503727
 20
214.787690710582
 30
0.0
 10
257.5107703380864
 20
214.8843682105939
 30
0.0
 10
257.5336435882321
 20
214.9723360265957
 30
0.0
 10
257.5351134263198
 20
215.0282681939595
 30
0.0
 10
257.5354217171669
 20
215.0399996733665
 30
0.0
  0
SPLINE
  5
2D7
330
1F
100
AcDbEntity
  8
0
  6
Continuous
 62
     7
370
    25
100
AcDbSpline
210
0.0
220
0.0
230
1.0
 70
     8
 71
     3
 72
    16
 73
    12
 74
     0
 42
0.000000001
 43
0.00000001
 40
0.0
 40
0.0
 40
0.0
 40
0.0
 40
0.1262570005891151
 40
0.2133366980406209
 40
0.3027675695117488
 40
0.4286498054497515
 40
0.5581622041888881
 40
0.6573667653293241
 40
0.7591247821023702
 40
0.9245958792651243
 40
1.0
 40
1.0
 40
1.0
 40
1.0
 10
257.5354217171669
 20
259.8399995660782
 30
0.0
 10
257.5311806311359
 20
259.7958200116535
 30
0.0
 10
257.5240144598683
 20
259.7211697331114
 30
0.0
 10
257.4848771224729
 20
259.6259443957852
 30
0.0
 10
257.4394103974049
 20
259.538742749586
 30
0.0
 10
257.3817824410993
 20
259.4495942209229
 30
0.0
 10
257.3239725398718
 20
259.3701715510156
 30
0.0
 10
257.2753467378356
 20
259.3074586170773
 30
0.0
 10
257.2315677140081
 20
259.252963023301
 30
0.0
 10
257.2003384139455
 20
259.2154042834426
 30
0.0
 10
257.2038900626337
 20
259.2196745246308
 30
0.0
 10
257.2050018787384
 20
259.2210112905503
 30
0.0
  0
SPLINE
  5
2D8
330
1F
100
AcDbEntity
  8
0
  6
Continuous
 62
     7
370
    25
100
AcDbSpline
210
0.0
220
0.0
230
1.0
 70
     8
 71
     3
 72
    16
 73
    12
 74
     0
 42
0.000000001
 43
0.00000001
 40
0.0
 40
0.0
 40
0.0
 40
0.0
 40
0.0779576797457551
 40
0.2330765411544263
 40
0.3996269281511914
 40
0.5213003676711755
 40
0.6464800275262379
 40
0.7420382595820629
 40
0.8396663563476258
 40
0.96637015144075
 40
1.0
 40
1.0
 40
1.0
 40
1.0
 10
257.2050883054733
 20
260.4588835334778
 30
0.0
 10
257.2039898289087
 20
260.4602057307737
 30
0.0
 10
257.200705622413
 20
260.4641588136957
 30
0.0
 10
257.2358293693591
 20
260.4218824095354
 30
0.0
 10
257.2925317523212
 20
260.3511842087642
 30
0.0
 10
257.3581866103369
 20
260.2636790792687
 30
0.0
 10
257.415367207566
 20
260.17982968971
 30
0.0
 10
257.4664113531261
 20
260.0923102769895
 30
0.0
 10
257.5107695088443
 20
259.995631425859
 30
0.0
 10
257.5336437153716
 20
259.9076635067021
 30
0.0
 10
257.5351134430147
 20
259.8517312999738
 30
0.0
 10
257.5354217171669
 20
259.8399995660782
 30
0.0
  0
LINE
  5
2D9
330
1F
100
AcDbEntity
  8
0
  6
Continuous
 62
     7
370
    25
100
AcDbLine
 10
258.6999996185
 20
212.5400005674
 30
0.0
 11
257.1999995589
 21
212.5400005674
 31
0.0
  0
LINE
  5
2DA
330
1F
100
AcDbEntity
  8
0
  6
Continuous
 62
     7
370
    25
100
AcDbLine
 10
258.6999996185
 20
262.3400001621
 30
0.0
 11
257.1999995589
 21
262.3400001621
 31
0.0
  0
LINE
  5
2DB
330
1F
100
AcDbEntity
  8
0
  6
Continuous
 62
     7
370
    25
100
AcDbLine
 10
232.301000002
 20
274.4899987078
 30
0.0
 11
228.7009997845
 21
274.4899987078
 31
0.0
  0
ARC
  5
2DC
330
1F
100
AcDbEntity
  8
0
  6
Continuous
 62
     7
370
    25
100
AcDbCircle
 10
232.301
 20
274.69
 30
0.0
 40
0.2000000000000455
100
AcDbArc
 50
270.0
 51
90.0
  0
LINE
  5
2DD
330
1F
100
AcDbEntity
  8
0
  6
Continuous
 62
     7
370
    25
100
AcDbLine
 10
228.7009997845
 20
274.8899995184
 30
0.0
 11
232.301000002
 21
274.8899995184
 31
0.0
  0
ARC
  5
2DE
330
1F
100
AcDbEntity
  8
0
  6
Continuous
 62
     7
370
    25
100
AcDbCircle
 10
228.701
 20
274.69
 30
0.0
 40
0.2000000000000455
100
AcDbArc
 50
90.0
 51
270.0
  0
LINE
  5
2DF
330
1F
100
AcDbEntity
  8
0
  6
Continuous
 62
     7
370
    25
100
AcDbLine
 10
232.301000002
 20
278.7899999714
 30
0.0
 11
228.7009997845
 21
278.7899999714
 31
0.0
  0
ARC
  5
2E0
330
1F
100
AcDbEntity
  8
0
  6
Continuous
 62
     7
370
    25
100
AcDbCircle
 10
232.301
 20
278.99
 30
0.0
 40
0.2000000000000455
100
AcDbArc
 50
270.0
 51
90.0
  0
LINE
  5
2E1
330
1F
100
AcDbEntity
  8
0
  6
Continuous
 62
     7
370
    25
100
AcDbLine
 10
228.7009997845
 20
279.190000782
 30
0.0
 11
232.301000002
 21
279.190000782
 31
0.0
  0
ARC
  5
2E2
330
1F
100
AcDbEntity
  8
0
  6
Continuous
 62
     7
370
    25
100
AcDbCircle
 10
228.701
 20
278.99
 30
0.0
 40
0.2000000000000455
100
AcDbArc
 50
90.0
 51
270.0
  0
LINE
  5
2E3
330
1F
100
AcDbEntity
  8
0
  6
Continuous
 62
     7
370
    25
100
AcDbLine
 10
233.5509999275
 20
274.8899995184
 30
0.0
 11
234.3009999573
 21
274.8899995184
 31
0.0
  0
ARC
  5
2E4
330
1F
100
AcDbEntity
  8
0
  6
Continuous
 62
     7
370
    25
100
AcDbCircle
 10
233.551
 20
274.69
 30
0.0
 40
0.2000000000000455
100
AcDbArc
 50
90.0
 51
270.0
  0
LINE
  5
2E5
330
1F
100
AcDbEntity
  8
0
  6
Continuous
 62
     7
370
    25
100
AcDbLine
 10
234.3009999573
 20
274.4899987078
 30
0.0
 11
233.5509999275
 21
274.4899987078
 31
0.0
  0
ARC
  5
2E6
330
1F
100
AcDbEntity
  8
0
  6
Continuous
 62
     7
370
    25
100
AcDbCircle
 10
234.301
 20
274.69
 30
0.0
 40
0.1999999999999886
100
AcDbArc
 50
270.0
 51
90.0
  0
LINE
  5
2E7
330
1F
100
AcDbEntity
  8
0
  6
Continuous
 62
     7
370
    25
100
AcDbLine
 10
233.5509999275
 20
279.190000782
 30
0.0
 11
234.3009999573
 21
279.190000782
 31
0.0
  0
ARC
  5
2E8
330
1F
100
AcDbEntity
  8
0
  6
Continuous
 62
     7
370
    25
100
AcDbCircle
 10
233.551
 20
278.99
 30
0.0
 40
0.2000000000000455
100
AcDbArc
 50
90.0
 51
270.0
  0
LINE
  5
2E9
330
1F
100
AcDbEntity
  8
0
  6
Continuous
 62
     7
370
    25
100
AcDbLine
 10
234.3009999573
 20
278.7899999714
 30
0.0
 11
233.5509999275
 21
278.7899999714
 31
0.0
  0
ARC
  5
2EA
330
1F
100
AcDbEntity
  8
0
  6
Continuous
 62
     7
370
    25
100
AcDbCircle
 10
234.301
 20
278.99
 30
0.0
 40
0.2000000000000455
100
AcDbArc
 50
270.0
 51
90.0
  0
LINE
  5
2EB
330
1F
100
AcDbEntity
  8
0
  6
Continuous
 62
     7
370
    25
100
AcDbLine
 10
246.2989999533
 20
274.8899995184
 30
0.0
 11
249.8989997983
 21
274.8899995184
 31
0.0
  0
ARC
  5
2EC
330
1F
100
AcDbEntity
  8
0
  6
Continuous
 62
     7
370
    25
100
AcDbCircle
 10
246.299
 20
274.69
 30
0.0
 40
0.2000000000000455
100
AcDbArc
 50
90.0
 51
270.0
  0
LINE
  5
2ED
330
1F
100
AcDbEntity
  8
0
  6
Continuous
 62
     7
370
    25
100
AcDbLine
 10
249.8989997983
 20
274.4899987078
 30
0.0
 11
246.2989999533
 21
274.4899987078
 31
0.0
  0
ARC
  5
2EE
330
1F
100
AcDbEntity
  8
0
  6
Continuous
 62
     7
370
    25
100
AcDbCircle
 10
249.899
 20
274.69
 30
0.0
 40
0.2000000000000455
100
AcDbArc
 50
270.0
 51
90.0
  0
LINE
  5
2EF
330
1F
100
AcDbEntity
  8
0
  6
Continuous
 62
     7
370
    25
100
AcDbLine
 10
246.2989999533
 20
279.190000782
 30
0.0
 11
249.8989997983
 21
279.190000782
 31
0.0
  0
ARC
  5
2F0
330
1F
100
AcDbEntity
  8
0
  6
Continuous
 62
     7
370
    25
100
AcDbCircle
 10
246.299
 20
278.99
 30
0.0
 40
0.2000000000000455
100
AcDbArc
 50
90.0
 51
270.0
  0
LINE
  5
2F1
330
1F
100
AcDbEntity
  8
0
  6
Continuous
 62
     7
370
    25
100
AcDbLine
 10
249.8989997983
 20
278.7899999714
 30
0.0
 11
246.2989999533
 21
278.7899999714
 31
0.0
  0
ARC
  5
2F2
330
1F
100
AcDbEntity
  8
0
  6
Continuous
 62
     7
370
    25
100
AcDbCircle
 10
249.899
 20
278.99
 30
0.0
 40
0.2000000000000455
100
AcDbArc
 50
270.0
 51
90.0
  0
LINE
  5
2F3
330
1F
100
AcDbEntity
  8
0
  6
Continuous
 62
     7
370
    25
100
AcDbLine
 10
226.3000002682
 20
282.4900000191
 30
0.0
 11
226.3000002682
 21
272.7400003767
 31
0.0
  0
LINE
  5
2F4
330
1F
100
AcDbEntity
  8
0
  6
Continuous
 62
     7
370
    25
100
AcDbLine
 10
226.3000002682
 20
282.4900000191
 30
0.0
 11
252.3000000596
 21
282.4900000191
 31
0.0
  0
LINE
  5
2F5
330
1F
100
AcDbEntity
  8
0
  6
Continuous
 62
     7
370
    25
100
AcDbLine
 10
252.3000000596
 20
282.4900000191
 30
0.0
 11
252.3000000596
 21
272.7400003767
 31
0.0
  0
LINE
  5
2F6
330
1F
100
AcDbEntity
  8
0
  6
Continuous
 62
     7
370
    25
100
AcDbLine
 10
226.3000002682
 20
272.7400003767
 30
0.0
 11
252.3000000596
 21
272.7400003767
 31
0.0
  0
LINE
  5
2F7
330
1F
100
AcDbEntity
  8
0
  6
Continuous
 62
     7
370
    25
100
AcDbLine
 10
246.2989999533
 20
281.3399999237
 30
0.0
 11
249.8989997983
 21
281.3399999237
 31
0.0
  0
ARC
  5
2F8
330
1F
100
AcDbEntity
  8
0
  6
Continuous
 62
     7
370
    25
100
AcDbCircle
 10
246.299
 20
281.14
 30
0.0
 40
0.2000000000000455
100
AcDbArc
 50
90.0
 51
270.0
  0
LINE
  5
2F9
330
1F
100
AcDbEntity
  8
0
  6
Continuous
 62
     7
370
    25
100
AcDbLine
 10
249.8989997983
 20
280.9399991131
 30
0.0
 11
246.2989999533
 21
280.9399991131
 31
0.0
  0
ARC
  5
2FA
330
1F
100
AcDbEntity
  8
0
  6
Continuous
 62
     7
370
    25
100
AcDbCircle
 10
249.899
 20
281.14
 30
0.0
 40
0.2000000000000455
100
AcDbArc
 50
270.0
 51
90.0
  0
LINE
  5
2FB
330
1F
100
AcDbEntity
  8
0
  6
Continuous
 62
     7
370
    25
100
AcDbLine
 10
246.2989999533
 20
277.0400016403
 30
0.0
 11
249.8989997983
 21
277.0400016403
 31
0.0
  0
ARC
  5
2FC
330
1F
100
AcDbEntity
  8
0
  6
Continuous
 62
     7
370
    25
100
AcDbCircle
 10
246.299
 20
276.84
 30
0.0
 40
0.2000000000000455
100
AcDbArc
 50
90.0
 51
270.0
  0
LINE
  5
2FD
330
1F
100
AcDbEntity
  8
0
  6
Continuous
 62
     7
370
    25
100
AcDbLine
 10
249.8989997983
 20
276.6400008297
 30
0.0
 11
246.2989999533
 21
276.6400008297
 31
0.0
  0
ARC
  5
2FE
330
1F
100
AcDbEntity
  8
0
  6
Continuous
 62
     7
370
    25
100
AcDbCircle
 10
249.899
 20
276.84
 30
0.0
 40
0.2000000000000455
100
AcDbArc
 50
270.0
 51
90.0
  0
LINE
  5
2FF
330
1F
100
AcDbEntity
  8
0
  6
Continuous
 62
     7
370
    25
100
AcDbLine
 10
233.5509999275
 20
281.3399999237
 30
0.0
 11
234.3009999573
 21
281.3399999237
 31
0.0
  0
ARC
  5
300
330
1F
100
AcDbEntity
  8
0
  6
Continuous
 62
     7
370
    25
100
AcDbCircle
 10
233.551
 20
281.14
 30
0.0
 40
0.2000000000000455
100
AcDbArc
 50
90.0
 51
270.0
  0
LINE
  5
301
330
1F
100
AcDbEntity
  8
0
  6
Continuous
 62
     7
370
    25
100
AcDbLine
 10
234.3009999573
 20
280.9399991131
 30
0.0
 11
233.5509999275
 21
280.9399991131
 31
0.0
  0
ARC
  5
302
330
1F
100
AcDbEntity
  8
0
  6
Continuous
 62
     7
370
    25
100
AcDbCircle
 10
234.301
 20
281.14
 30
0.0
 40
0.2000000000000455
100
AcDbArc
 50
270.0
 51
90.0
  0
LINE
  5
303
330
1F
100
AcDbEntity
  8
0
  6
Continuous
 62
     7
370
    25
100
AcDbLine
 10
233.5509999275
 20
277.0400016403
 30
0.0
 11
234.3009999573
 21
277.0400016403
 31
0.0
  0
ARC
  5
304
330
1F
100
AcDbEntity
  8
0
  6
Continuous
 62
     7
370
    25
100
AcDbCircle
 10
233.551
 20
276.84
 30
0.0
 40
0.2000000000000455
100
AcDbArc
 50
90.0
 51
270.0
  0
LINE
  5
305
330
1F
100
AcDbEntity
  8
0
  6
Continuous
 62
     7
370
    25
100
AcDbLine
 10
234.3009999573
 20
276.6400008297
 30
0.0
 11
233.5509999275
 21
276.6400008297
 31
0.0
  0
ARC
  5
306
330
1F
100
AcDbEntity
  8
0
  6
Continuous
 62
     7
370
    25
100
AcDbCircle
 10
234.301
 20
276.84
 30
0.0
 40
0.2000000000000455
100
AcDbArc
 50
270.0
 51
90.0
  0
LINE
  5
307
330
1F
100
AcDbEntity
  8
0
  6
Continuous
 62
     7
370
    25
100
AcDbLine
 10
232.301000002
 20
280.9399991131
 30
0.0
 11
228.7009997845
 21
280.9399991131
 31
0.0
  0
ARC
  5
308
330
1F
100
AcDbEntity
  8
0
  6
Continuous
 62
     7
370
    25
100
AcDbCircle
 10
232.301
 20
281.14
 30
0.0
 40
0.2000000000000455
100
AcDbArc
 50
270.0
 51
90.0
  0
LINE
  5
309
330
1F
100
AcDbEntity
  8
0
  6
Continuous
 62
     7
370
    25
100
AcDbLine
 10
228.7009997845
 20
281.3399999237
 30
0.0
 11
232.301000002
 21
281.3399999237
 31
0.0
  0
ARC
  5
30A
330
1F
100
AcDbEntity
  8
0
  6
Continuous
 62
     7
370
    25
100
AcDbCircle
 10
228.701
 20
281.14
 30
0.0
 40
0.2000000000000455
100
AcDbArc
 50
90.0
 51
270.0
  0
LINE
  5
30B
330
1F
100
AcDbEntity
  8
0
  6
Continuous
 62
     7
370
    25
100
AcDbLine
 10
232.301000002
 20
276.6400008297
 30
0.0
 11
228.7009997845
 21
276.6400008297
 31
0.0
  0
ARC
  5
30C
330
1F
100
AcDbEntity
  8
0
  6
Continuous
 62
     7
370
    25
100
AcDbCircle
 10
232.301
 20
276.84
 30
0.0
 40
0.2000000000000455
100
AcDbArc
 50
270.0
 51
90.0
  0
LINE
  5
30D
330
1F
100
AcDbEntity
  8
0
  6
Continuous
 62
     7
370
    25
100
AcDbLine
 10
228.7009997845
 20
277.0400016403
 30
0.0
 11
232.301000002
 21
277.0400016403
 31
0.0
  0
ARC
  5
30E
330
1F
100
AcDbEntity
  8
0
  6
Continuous
 62
     7
370
    25
100
AcDbCircle
 10
228.701
 20
276.84
 30
0.0
 40
0.2000000000000455
100
AcDbArc
 50
90.0
 51
270.0
  0
LINE
  5
30F
330
1F
100
AcDbEntity
  8
0
  6
Continuous
 62
     7
370
    25
100
AcDbLine
 10
250.6999997973
 20
182.2549997663
 30
0.0
 11
250.6999997973
 21
177.2549985743
 31
0.0
  0
LINE
  5
310
330
1F
100
AcDbEntity
  8
0
  6
Continuous
 62
     7
370
    25
100
AcDbLine
 10
250.6999997973
 20
177.2549985743
 30
0.0
 11
250.3499998331
 21
177.2549985743
 31
0.0
  0
LINE
  5
311
330
1F
100
AcDbEntity
  8
0
  6
Continuous
 62
     7
370
    25
100
AcDbLine
 10
250.3499998331
 20
182.2549997663
 30
0.0
 11
250.3499998331
 21
177.2549985743
 31
0.0
  0
LINE
  5
312
330
1F
100
AcDbEntity
  8
0
  6
Continuous
 62
     7
370
    25
100
AcDbLine
 10
253.314795959
 20
182.5049995279
 30
0.0
 11
253.314795959
 21
272.4900006151
 31
0.0
  0
LINE
  5
313
330
1F
100
AcDbEntity
  8
0
  6
Continuous
 62
     7
370
    25
100
AcDbLine
 10
252.3249997377
 20
182.5049995279
 30
0.0
 11
252.3249997377
 21
272.4900006151
 31
0.0
  0
LINE
  5
314
330
1F
100
AcDbEntity
  8
0
  6
Continuous
 62
     7
370
    25
100
AcDbLine
 10
252.3249997377
 20
182.5049995279
 30
0.0
 11
253.314795959
 21
182.5049995279
 31
0.0
  0
LINE
  5
315
330
1F
100
AcDbEntity
  8
0
  6
Continuous
 62
     7
370
    25
100
AcDbLine
 10
252.3249997377
 20
272.4900006151
 30
0.0
 11
253.314795959
 21
272.4900006151
 31
0.0
  0
LINE
  5
316
330
1F
100
AcDbEntity
  8
0
  6
Continuous
 62
     7
370
    25
100
AcDbLine
 10
253.3247961283
 20
182.5049995279
 30
0.0
 11
253.3247961283
 21
272.4900006151
 31
0.0
  0
LINE
  5
317
330
1F
100
AcDbEntity
  8
0
  6
Continuous
 62
     7
370
    25
100
AcDbLine
 10
253.314795959
 20
182.5049995279
 30
0.0
 11
253.3247961283
 21
182.5049995279
 31
0.0
  0
LINE
  5
318
330
1F
100
AcDbEntity
  8
0
  6
Continuous
 62
     7
370
    25
100
AcDbLine
 10
253.314795959
 20
272.4900006151
 30
0.0
 11
253.3247961283
 21
272.4900006151
 31
0.0
  0
LINE
  5
319
330
1F
100
AcDbEntity
  8
0
  6
Continuous
 62
     7
370
    25
100
AcDbLine
 10
253.3313124061
 20
182.5049995279
 30
0.0
 11
253.3313124061
 21
272.4900006151
 31
0.0
  0
LINE
  5
31A
330
1F
100
AcDbEntity
  8
0
  6
Continuous
 62
     7
370
    25
100
AcDbLine
 10
253.3247961283
 20
182.5049995279
 30
0.0
 11
253.3313124061
 21
182.5049995279
 31
0.0
  0
LINE
  5
31B
330
1F
100
AcDbEntity
  8
0
  6
Continuous
 62
     7
370
    25
100
AcDbLine
 10
253.3247961283
 20
272.4900006151
 30
0.0
 11
253.3313124061
 21
272.4900006151
 31
0.0
  0
LINE
  5
31C
330
1F
100
AcDbEntity
  8
0
  6
Continuous
 62
     7
370
    25
100
AcDbLine
 10
253.3313124061
 20
182.5049995279
 30
0.0
 11
253.3413125753
 21
182.5049995279
 31
0.0
  0
LINE
  5
31D
330
1F
100
AcDbEntity
  8
0
  6
Continuous
 62
     7
370
    25
100
AcDbLine
 10
253.3313124061
 20
272.4900006151
 30
0.0
 11
253.3413125753
 21
272.4900006151
 31
0.0
  0
LINE
  5
31E
330
1F
100
AcDbEntity
  8
0
  6
Continuous
 62
     7
370
    25
100
AcDbLine
 10
252.2750003815
 20
182.5049995279
 30
0.0
 11
252.2750003815
 21
272.4900006151
 31
0.0
  0
LINE
  5
31F
330
1F
100
AcDbEntity
  8
0
  6
Continuous
 62
     7
370
    25
100
AcDbLine
 10
252.2750003815
 20
182.5049995279
 30
0.0
 11
252.3249997377
 21
182.5049995279
 31
0.0
  0
LINE
  5
320
330
1F
100
AcDbEntity
  8
0
  6
Continuous
 62
     7
370
    25
100
AcDbLine
 10
252.2750003815
 20
272.4900006151
 30
0.0
 11
252.3249997377
 21
272.4900006151
 31
0.0
  0
LINE
  5
321
330
1F
100
AcDbEntity
  8
0
  6
Continuous
 62
     7
370
    25
100
AcDbLine
 10
250.8
 20
182.5049995279
 30
0.0
 11
250.8
 21
272.4900006151
 31
0.0
  0
LINE
  5
322
330
1F
100
AcDbEntity
  8
0
  6
Continuous
 62
     7
370
    25
100
AcDbLine
 10
250.8
 20
182.5049995279
 30
0.0
 11
252.2750003815
 21
182.5049995279
 31
0.0
  0
LINE
  5
323
330
1F
100
AcDbEntity
  8
0
  6
Continuous
 62
     7
370
    25
100
AcDbLine
 10
250.8
 20
272.4900006151
 30
0.0
 11
252.2750003815
 21
272.4900006151
 31
0.0
  0
LINE
  5
324
330
1F
100
AcDbEntity
  8
0
  6
Continuous
 62
     7
370
    25
100
AcDbLine
 10
224.2999999404
 20
272.7400003767
 30
0.0
 11
252.3000000596
 21
272.7400003767
 31
0.0
  0
LINE
  5
325
330
1F
100
AcDbEntity
  8
0
  6
Continuous
 62
     7
370
    25
100
AcDbLine
 10
252.3000000596
 20
272.7400003767
 30
0.0
 11
252.3000000596
 21
272.4900006151
 31
0.0
  0
LINE
  5
326
330
1F
100
AcDbEntity
  8
0
  6
Continuous
 62
     7
370
    25
100
AcDbLine
 10
252.3000000596
 20
182.5049995279
 30
0.0
 11
252.3000000596
 21
182.2549997663
 31
0.0
  0
LINE
  5
327
330
1F
100
AcDbEntity
  8
0
  6
Continuous
 62
     7
370
    25
100
AcDbLine
 10
224.2999999404
 20
182.2549997663
 30
0.0
 11
252.3000000596
 21
182.2549997663
 31
0.0
  0
LINE
  5
328
330
1F
100
AcDbEntity
  8
0
  6
Continuous
 62
     7
370
    25
100
AcDbLine
 10
224.2999999404
 20
182.2549997663
 30
0.0
 11
224.2999999404
 21
272.7400003767
 31
0.0
  0
LINE
  5
329
330
1F
100
AcDbEntity
  8
0
  6
Continuous
 62
     7
370
    25
100
AcDbLine
 10
249.1549997211
 20
178.1049995518
 30
0.0
 11
250.2999997318
 21
178.1049995518
 31
0.0
  0
LINE
  5
32A
330
1F
100
AcDbEntity
  8
0
  6
Continuous
 62
     7
370
    25
100
AcDbLine
 10
248.4549997926
 20
177.4049996233
 30
0.0
 11
249.1549997211
 21
178.1049995518
 31
0.0
  0
LINE
  5
32B
330
1F
100
AcDbEntity
  8
0
  6
Continuous
 62
     7
370
    25
100
AcDbLine
 10
248.4549997926
 20
177.4049996233
 30
0.0
 11
232.7800000638
 21
177.4049996233
 31
0.0
  0
LINE
  5
32C
330
1F
100
AcDbEntity
  8
0
  6
Continuous
 62
     7
370
    25
100
AcDbLine
 10
232.7800000638
 20
177.695000062
 30
0.0
 11
232.7800000638
 21
177.4049996233
 31
0.0
  0
LINE
  5
32D
330
1F
100
AcDbEntity
  8
0
  6
Continuous
 62
     7
370
    25
100
AcDbLine
 10
227.7799999893
 20
182.2450010872
 30
0.0
 11
250.2999997318
 21
182.2450010872
 31
0.0
  0
LINE
  5
32E
330
1F
100
AcDbEntity
  8
0
  6
Continuous
 62
     7
370
    25
100
AcDbLine
 10
250.2999997318
 20
178.1049995518
 30
0.0
 11
250.2999997318
 21
182.2450010872
 31
0.0
  0
ARC
  5
32F
330
1F
100
AcDbEntity
  8
0
  6
Continuous
 62
     7
370
    25
100
AcDbCircle
 10
233.95
 20
180.895
 30
0.0
 40
0.2000000000000171
100
AcDbArc
 50
90.0
 51
270.0
  0
LINE
  5
330
330
1F
100
AcDbEntity
  8
0
  6
Continuous
 62
     7
370
    25
100
AcDbLine
 10
237.5500000168
 20
180.6950001812
 30
0.0
 11
233.9500001252
 21
180.6950001812
 31
0.0
  0
ARC
  5
331
330
1F
100
AcDbEntity
  8
0
  6
Continuous
 62
     7
370
    25
100
AcDbCircle
 10
237.55
 20
180.895
 30
0.0
 40
0.2000000000000171
100
AcDbArc
 50
270.0
 51
90.0
  0
LINE
  5
332
330
1F
100
AcDbEntity
  8
0
  6
Continuous
 62
     7
370
    25
100
AcDbLine
 10
233.9500001252
 20
181.0950009918
 30
0.0
 11
237.5500000168
 21
181.0950009918
 31
0.0
  0
ARC
  5
333
330
1F
100
AcDbEntity
  8
0
  6
Continuous
 62
     7
370
    25
100
AcDbCircle
 10
242.2
 20
179.895
 30
0.0
 40
0.2000000000000171
100
AcDbArc
 50
90.0
 51
270.0
  0
LINE
  5
334
330
1F
100
AcDbEntity
  8
0
  6
Continuous
 62
     7
370
    25
100
AcDbLine
 10
245.800000298
 20
179.6950011349
 30
0.0
 11
242.2000000805
 21
179.6950011349
 31
0.0
  0
ARC
  5
335
330
1F
100
AcDbEntity
  8
0
  6
Continuous
 62
     7
370
    25
100
AcDbCircle
 10
245.8
 20
179.895
 30
0.0
 40
0.2000000000000171
100
AcDbArc
 50
270.0
 51
90.0
  0
LINE
  5
336
330
1F
100
AcDbEntity
  8
0
  6
Continuous
 62
     7
370
    25
100
AcDbLine
 10
242.2000000805
 20
180.0949989653
 30
0.0
 11
245.800000298
 21
180.0949989653
 31
0.0
  0
ARC
  5
337
330
1F
100
AcDbEntity
  8
0
  6
Continuous
 62
     7
370
    25
100
AcDbCircle
 10
236.7
 20
179.895
 30
0.0
 40
0.2000000000000171
100
AcDbArc
 50
90.0
 51
270.0
  0
LINE
  5
338
330
1F
100
AcDbEntity
  8
0
  6
Continuous
 62
     7
370
    25
100
AcDbLine
 10
240.2999999553
 20
179.6950011349
 30
0.0
 11
236.699999924
 21
179.6950011349
 31
0.0
  0
ARC
  5
339
330
1F
100
AcDbEntity
  8
0
  6
Continuous
 62
     7
370
    25
100
AcDbCircle
 10
240.3
 20
179.895
 30
0.0
 40
0.2000000000000171
100
AcDbArc
 50
270.0
 51
90.0
  0
LINE
  5
33A
330
1F
100
AcDbEntity
  8
0
  6
Continuous
 62
     7
370
    25
100
AcDbLine
 10
236.699999924
 20
180.0949989653
 30
0.0
 11
240.2999999553
 21
180.0949989653
 31
0.0
  0
ARC
  5
33B
330
1F
100
AcDbEntity
  8
0
  6
Continuous
 62
     7
370
    25
100
AcDbCircle
 10
231.2
 20
179.895
 30
0.0
 40
0.2000000000000171
100
AcDbArc
 50
90.0
 51
270.0
  0
LINE
  5
33C
330
1F
100
AcDbEntity
  8
0
  6
Continuous
 62
     7
370
    25
100
AcDbLine
 10
234.7999999851
 20
179.6950011349
 30
0.0
 11
231.1999997675
 21
179.6950011349
 31
0.0
  0
ARC
  5
33D
330
1F
100
AcDbEntity
  8
0
  6
Continuous
 62
     7
370
    25
100
AcDbCircle
 10
234.8
 20
179.895
 30
0.0
 40
0.2000000000000171
100
AcDbArc
 50
270.0
 51
90.0
  0
LINE
  5
33E
330
1F
100
AcDbEntity
  8
0
  6
Continuous
 62
     7
370
    25
100
AcDbLine
 10
231.1999997675
 20
180.0949989653
 30
0.0
 11
234.7999999851
 21
180.0949989653
 31
0.0
  0
ARC
  5
33F
330
1F
100
AcDbEntity
  8
0
  6
Continuous
 62
     7
370
    25
100
AcDbCircle
 10
244.95
 20
180.895
 30
0.0
 40
0.2000000000000171
100
AcDbArc
 50
90.0
 51
270.0
  0
LINE
  5
340
330
1F
100
AcDbEntity
  8
0
  6
Continuous
 62
     7
370
    25
100
AcDbLine
 10
248.5499999106
 20
180.6950001812
 30
0.0
 11
244.9500000656
 21
180.6950001812
 31
0.0
  0
ARC
  5
341
330
1F
100
AcDbEntity
  8
0
  6
Continuous
 62
     7
370
    25
100
AcDbCircle
 10
248.55
 20
180.895
 30
0.0
 40
0.2000000000000171
100
AcDbArc
 50
270.0
 51
90.0
  0
LINE
  5
342
330
1F
100
AcDbEntity
  8
0
  6
Continuous
 62
     7
370
    25
100
AcDbLine
 10
244.9500000656
 20
181.0950009918
 30
0.0
 11
248.5499999106
 21
181.0950009918
 31
0.0
  0
ARC
  5
343
330
1F
100
AcDbEntity
  8
0
  6
Continuous
 62
     7
370
    25
100
AcDbCircle
 10
239.45
 20
180.895
 30
0.0
 40
0.2000000000000171
100
AcDbArc
 50
90.0
 51
270.0
  0
LINE
  5
344
330
1F
100
AcDbEntity
  8
0
  6
Continuous
 62
     7
370
    25
100
AcDbLine
 10
243.0499999404
 20
180.6950001812
 30
0.0
 11
239.4500000022
 21
180.6950001812
 31
0.0
  0
ARC
  5
345
330
1F
100
AcDbEntity
  8
0
  6
Continuous
 62
     7
370
    25
100
AcDbCircle
 10
243.05
 20
180.895
 30
0.0
 40
0.2000000000000171
100
AcDbArc
 50
270.0
 51
90.0
  0
LINE
  5
346
330
1F
100
AcDbEntity
  8
0
  6
Continuous
 62
     7
370
    25
100
AcDbLine
 10
239.4500000022
 20
181.0950009918
 30
0.0
 11
243.0499999404
 21
181.0950009918
 31
0.0
  0
LINE
  5
347
330
1F
100
AcDbEntity
  8
0
  6
Continuous
 62
     7
370
    25
100
AcDbLine
 10
227.7799999893
 20
182.2450010872
 30
0.0
 11
227.7799999893
 21
177.695000062
 31
0.0
  0
LINE
  5
348
330
1F
100
AcDbEntity
  8
0
  6
Continuous
 62
     7
370
    25
100
AcDbLine
 10
227.7799999893
 20
177.695000062
 30
0.0
 11
232.7800000638
 21
177.695000062
 31
0.0
  0
LINE
  5
349
330
1F
100
AcDbEntity
  8
0
  6
Continuous
 62
     7
370
    25
100
AcDbLine
 10
250.2999997318
 20
182.2450010872
 30
0.0
 11
250.2999997318
 21
182.2549997663
 31
0.0
  0
LINE
  5
34A
330
1F
100
AcDbEntity
  8
0
  6
Continuous
 62
     7
370
    25
100
AcDbLine
 10
227.7799999893
 20
182.2450010872
 30
0.0
 11
227.7799999893
 21
182.2549997663
 31
0.0
  0
LINE
  5
34B
330
1F
100
AcDbEntity
  8
0
  6
Continuous
 62
     7
370
    25
100
AcDbLine
 10
248.5784998715
 20
176.4899997807
 30
0.0
 11
250.3114997029
 21
176.4899997807
 31
0.0
  0
LINE
  5
34C
330
1F
100
AcDbEntity
  8
0
  6
Continuous
 62
     7
370
    25
100
AcDbLine
 10
248.8610854924
 20
177.0265011883
 30
0.0
 11
250.0289148271
 21
177.0265011883
 31
0.0
  0
ARC
  5
34D
330
1F
100
AcDbEntity
  8
0
  6
Continuous
 62
     7
370
    25
100
AcDbCircle
 10
231.325
 20
177.74
 30
0.0
 40
1.250000000000026
100
AcDbArc
 50
182.0630938545
 51
357.9369061455
  0
ARC
  5
34E
330
1F
100
AcDbEntity
  8
0
  6
Continuous
 62
     7
370
    25
100
AcDbCircle
 10
231.325
 20
177.74
 30
0.0
 40
0.8503812145668254
100
AcDbArc
 50
183.0333630072
 51
356.9666369928
  0
ARC
  5
34F
330
1F
100
AcDbEntity
  8
0
  6
Continuous
 62
     7
370
    25
100
AcDbCircle
 10
231.325
 20
177.74
 30
0.0
 40
0.375000000000021
100
AcDbArc
 50
186.8921025794
 51
353.1078974206
  0
LINE
  5
350
330
1F
100
AcDbEntity
  8
0
  6
Continuous
 62
     7
370
    25
100
AcDbLine
 10
249.0293076813
 20
177.1874992943
 30
0.0
 11
249.8606918931
 21
177.1874992943
 31
0.0
  0
LINE
  5
351
330
1F
100
AcDbEntity
  8
0
  6
Continuous
 62
     8
370
    25
100
AcDbLine
 10
248.503500092
 20
176.5650003052
 30
0.0
 11
250.3865002275
 21
176.5650003052
 31
0.0
  0
LINE
  5
352
330
1F
100
AcDbEntity
  8
0
  6
Continuous
 62
     8
370
    25
100
AcDbLine
 10
248.503500092
 20
176.6596405602
 30
0.0
 11
250.3865002275
 21
176.6596405602
 31
0.0
  0
LINE
  5
353
330
1F
100
AcDbEntity
  8
0
  6
Continuous
 62
     8
370
    25
100
AcDbLine
 10
248.5246180177
 20
176.7118095255
 30
0.0
 11
250.3653823018
 21
176.7118095255
 31
0.0
  0
LINE
  5
354
330
1F
100
AcDbEntity
  8
0
  6
Continuous
 62
     8
370
    25
100
AcDbLine
 10
248.8072036386
 20
177.0036696291
 30
0.0
 11
250.0827966809
 21
177.0036696291
 31
0.0
  0
ENDSEC
  0
SECTION
  2
OBJECTS
  0
DICTIONARY
  5
C
330
0
100
AcDbDictionary
281
     1
  3
ACAD_GROUP
350
D
  3
ACAD_LAYOUT
350
1A
  3
ACAD_MLINESTYLE
350
17
  3
ACAD_PLOTSETTINGS
350
19
  3
ACAD_PLOTSTYLENAME
350
E
  3
ACAD_SCALELIST
350
47
  0
DICTIONARY
  5
D
102
{ACAD_REACTORS
330
C
102
}
330
C
100
AcDbDictionary
281
     1
  0
DICTIONARY
  5
1A
102
{ACAD_REACTORS
330
C
102
}
330
C
100
AcDbDictionary
281
     1
  3
Layout1
350
1E
  3
Layout2
350
26
  3
Model
350
22
  0
DICTIONARY
  5
17
102
{ACAD_REACTORS
330
C
102
}
330
C
100
AcDbDictionary
281
     1
  3
Standard
350
18
  0
DICTIONARY
  5
19
102
{ACAD_REACTORS
330
C
102
}
330
C
100
AcDbDictionary
281
     1
  0
ACDBDICTIONARYWDFLT
  5
E
102
{ACAD_REACTORS
330
C
102
}
330
C
100
AcDbDictionary
281
     1
  3
Normal
350
F
100
AcDbDictionaryWithDefault
340
F
  0
DICTIONARY
  5
47
102
{ACAD_REACTORS
330
C
102
}
330
C
100
AcDbDictionary
281
     1
  3
A0
350
48
  3
A1
350
49
  3
A2
350
4A
  3
A3
350
4B
  3
A4
350
4C
  3
A5
350
4D
  3
A6
350
4E
  3
A7
350
4F
  3
A8
350
50
  3
A9
350
51
  3
B0
350
52
  3
B1
350
53
  3
B2
350
54
  3
B3
350
55
  3
B4
350
56
  3
B5
350
57
  3
B6
350
58
  3
B7
350
59
  3
B8
350
5A
  3
B9
350
5B
  3
C0
350
5C
  3
C1
350
5D
  3
C2
350
5E
  3
C3
350
5F
  3
C4
350
60
  3
C5
350
61
  3
C6
350
62
  3
C7
350
63
  3
C8
350
64
  3
C9
350
65
  3
D0
350
66
  3
D1
350
67
  3
D2
350
68
  0
LAYOUT
  5
1E
102
{ACAD_REACTORS
330
1A
102
}
330
1A
100
AcDbPlotSettings
  1

  2
none_device
  4

  6

 40
0.0
 41
0.0
 42
0.0
 43
0.0
 44
0.0
 45
0.0
 46
0.0
 47
0.0
 48
0.0
 49
0.0
140
0.0
141
0.0
142
1.0
143
1.0
 70
   688
 72
     1
 73
     0
 74
     5
  7

 75
    16
147
1.0
148
0.0
149
0.0
100
AcDbLayout
  1
Layout1
 70
     1
 71
     1
 10
0.0
 20
0.0
 11
420.0
 21
297.0
 12
0.0
 22
0.0
 32
0.0
 14
1.0000000000E+20
 24
1.0000000000E+20
 34
1.0000000000E+20
 15
-1.0000000000E+20
 25
-1.0000000000E+20
 35
-1.0000000000E+20
146
0.0
 13
0.0
 23
0.0
 33
0.0
 16
1.0
 26
0.0
 36
0.0
 17
0.0
 27
1.0
 37
0.0
 76
     0
330
1B
  0
LAYOUT
  5
26
102
{ACAD_REACTORS
330
1A
102
}
330
1A
100
AcDbPlotSettings
  1

  2
none_device
  4

  6

 40
0.0
 41
0.0
 42
0.0
 43
0.0
 44
0.0
 45
0.0
 46
0.0
 47
0.0
 48
0.0
 49
0.0
140
0.0
141
0.0
142
1.0
143
1.0
 70
   688
 72
     1
 73
     0
 74
     5
  7

 75
    16
147
1.0
148
0.0
149
0.0
100
AcDbLayout
  1
Layout2
 70
     1
 71
     2
 10
0.0
 20
0.0
 11
0.0
 21
0.0
 12
0.0
 22
0.0
 32
0.0
 14
0.0
 24
0.0
 34
0.0
 15
0.0
 25
0.0
 35
0.0
146
0.0
 13
0.0
 23
0.0
 33
0.0
 16
1.0
 26
0.0
 36
0.0
 17
0.0
 27
1.0
 37
0.0
 76
     0
330
23
  0
LAYOUT
  5
22
102
{ACAD_REACTORS
330
1A
102
}
330
1A
100
AcDbPlotSettings
  1

  2
none_device
  4
Letter_(8.50_x_11.00_Inches)
  6

 40
6.35
 41
6.35
 42
6.35000508
 43
6.35000508
 44
215.9
 45
279.4
 46
0.0
 47
0.0
 48
0.0
 49
0.0
140
0.0
141
0.0
142
1.0
143
1.0
 70
  1712
 72
     1
 73
     0
 74
     0
  7

 75
     0
147
1.0
148
0.0
149
0.0
100
AcDbLayout
  1
Model
 70
     1
 71
     0
 10
0.0
 20
0.0
 11
420.0
 21
297.0
 12
0.0
 22
0.0
 32
0.0
 14
0.0
 24
0.0
 34
0.0
 15
420.0
 25
297.0
 35
0.0
146
0.0
 13
0.0
 23
0.0
 33
0.0
 16
1.0
 26
0.0
 36
0.0
 17
0.0
 27
1.0
 37
0.0
 76
     0
330
1F
331
29
  0
MLINESTYLE
  5
18
102
{ACAD_REACTORS
330
17
102
}
330
17
100
AcDbMlineStyle
  2
Standard
 70
     0
  3

 62
   256
 51
90.0
 52
90.0
 71
     2
 49
0.5
 62
   256
  6
BYLAYER
 49
-0.5
 62
   256
  6
BYLAYER
  0
ACDBPLACEHOLDER
  5
F
102
{ACAD_REACTORS
330
E
102
}
330
E
  0
SCALE
  5
48
102
{ACAD_REACTORS
330
47
102
}
330
47
100
AcDbScale
 70
     0
300
1:1
140
1.0
141
1.0
290
     1
  0
SCALE
  5
49
102
{ACAD_REACTORS
330
47
102
}
330
47
100
AcDbScale
 70
     0
300
1:2
140
1.0
141
2.0
290
     0
  0
SCALE
  5
4A
102
{ACAD_REACTORS
330
47
102
}
330
47
100
AcDbScale
 70
     0
300
1:4
140
1.0
141
4.0
290
     0
  0
SCALE
  5
4B
102
{ACAD_REACTORS
330
47
102
}
330
47
100
AcDbScale
 70
     0
300
1:5
140
1.0
141
5.0
290
     0
  0
SCALE
  5
4C
102
{ACAD_REACTORS
330
47
102
}
330
47
100
AcDbScale
 70
     0
300
1:8
140
1.0
141
8.0
290
     0
  0
SCALE
  5
4D
102
{ACAD_REACTORS
330
47
102
}
330
47
100
AcDbScale
 70
     0
300
1:10
140
1.0
141
10.0
290
     0
  0
SCALE
  5
4E
102
{ACAD_REACTORS
330
47
102
}
330
47
100
AcDbScale
 70
     0
300
1:16
140
1.0
141
16.0
290
     0
  0
SCALE
  5
4F
102
{ACAD_REACTORS
330
47
102
}
330
47
100
AcDbScale
 70
     0
300
1:20
140
1.0
141
20.0
290
     0
  0
SCALE
  5
50
102
{ACAD_REACTORS
330
47
102
}
330
47
100
AcDbScale
 70
     0
300
1:30
140
1.0
141
30.0
290
     0
  0
SCALE
  5
51
102
{ACAD_REACTORS
330
47
102
}
330
47
100
AcDbScale
 70
     0
300
1:40
140
1.0
141
40.0
290
     0
  0
SCALE
  5
52
102
{ACAD_REACTORS
330
47
102
}
330
47
100
AcDbScale
 70
     0
300
1:50
140
1.0
141
50.0
290
     0
  0
SCALE
  5
53
102
{ACAD_REACTORS
330
47
102
}
330
47
100
AcDbScale
 70
     0
300
1:100
140
1.0
141
100.0
290
     0
  0
SCALE
  5
54
102
{ACAD_REACTORS
330
47
102
}
330
47
100
AcDbScale
 70
     0
300
2:1
140
2.0
141
1.0
290
     0
  0
SCALE
  5
55
102
{ACAD_REACTORS
330
47
102
}
330
47
100
AcDbScale
 70
     0
300
4:1
140
4.0
141
1.0
290
     0
  0
SCALE
  5
56
102
{ACAD_REACTORS
330
47
102
}
330
47
100
AcDbScale
 70
     0
300
8:1
140
8.0
141
1.0
290
     0
  0
SCALE
  5
57
102
{ACAD_REACTORS
330
47
102
}
330
47
100
AcDbScale
 70
     0
300
10:1
140
10.0
141
1.0
290
     0
  0
SCALE
  5
58
102
{ACAD_REACTORS
330
47
102
}
330
47
100
AcDbScale
 70
     0
300
100:1
140
100.0
141
1.0
290
     0
  0
SCALE
  5
59
102
{ACAD_REACTORS
330
47
102
}
330
47
100
AcDbScale
 70
     0
300
1/128" = 1'-0"
140
0.0078125
141
12.0
290
     0
  0
SCALE
  5
5A
102
{ACAD_REACTORS
330
47
102
}
330
47
100
AcDbScale
 70
     0
300
1/64" = 1'-0"
140
0.015625
141
12.0
290
     0
  0
SCALE
  5
5B
102
{ACAD_REACTORS
330
47
102
}
330
47
100
AcDbScale
 70
     0
300
1/32" = 1'-0"
140
0.03125
141
12.0
290
     0
  0
SCALE
  5
5C
102
{ACAD_REACTORS
330
47
102
}
330
47
100
AcDbScale
 70
     0
300
1/16" = 1'-0"
140
0.0625
141
12.0
290
     0
  0
SCALE
  5
5D
102
{ACAD_REACTORS
330
47
102
}
330
47
100
AcDbScale
 70
     0
300
3/32" = 1'-0"
140
0.09375
141
12.0
290
     0
  0
SCALE
  5
5E
102
{ACAD_REACTORS
330
47
102
}
330
47
100
AcDbScale
 70
     0
300
1/8" = 1'-0"
140
0.125
141
12.0
290
     0
  0
SCALE
  5
5F
102
{ACAD_REACTORS
330
47
102
}
330
47
100
AcDbScale
 70
     0
300
3/16" = 1'-0"
140
0.1875
141
12.0
290
     0
  0
SCALE
  5
60
102
{ACAD_REACTORS
330
47
102
}
330
47
100
AcDbScale
 70
     0
300
1/4" = 1'-0"
140
0.25
141
12.0
290
     0
  0
SCALE
  5
61
102
{ACAD_REACTORS
330
47
102
}
330
47
100
AcDbScale
 70
     0
300
3/8" = 1'-0"
140
0.375
141
12.0
290
     0
  0
SCALE
  5
62
102
{ACAD_REACTORS
330
47
102
}
330
47
100
AcDbScale
 70
     0
300
1/2" = 1'-0"
140
0.5
141
12.0
290
     0
  0
SCALE
  5
63
102
{ACAD_REACTORS
330
47
102
}
330
47
100
AcDbScale
 70
     0
300
3/4" = 1'-0"
140
0.75
141
12.0
290
     0
  0
SCALE
  5
64
102
{ACAD_REACTORS
330
47
102
}
330
47
100
AcDbScale
 70
     0
300
1" = 1'-0"
140
1.0
141
12.0
290
     0
  0
SCALE
  5
65
102
{ACAD_REACTORS
330
47
102
}
330
47
100
AcDbScale
 70
     0
300
1-1/2" = 1'-0"
140
1.5
141
12.0
290
     0
  0
SCALE
  5
66
102
{ACAD_REACTORS
330
47
102
}
330
47
100
AcDbScale
 70
     0
300
3" = 1'-0"
140
3.0
141
12.0
290
     0
  0
SCALE
  5
67
102
{ACAD_REACTORS
330
47
102
}
330
47
100
AcDbScale
 70
     0
300
6" = 1'-0"
140
6.0
141
12.0
290
     0
  0
SCALE
  5
68
102
{ACAD_REACTORS
330
47
102
}
330
47
100
AcDbScale
 70
     0
300
1'-0" = 1'-0"
140
12.0
141
12.0
290
     0
  0
ENDSEC
  0
EOF
